» » »

Rise Against, Swing Life Away Tabs (ver.1)

Artists:  A B C D E F G H I J K L M N O P Q R S T U V W X Y Z # 

Swing Life Away Tabs (ver.1)

Rise Against Tabs
 Rating:
4/5 (4 votes)
Swing Life Away lessons Tabs too difficult? Try these video lessons and learn fast
1
                Mxtabs ID: noonecouldseeme


NOTE: if you scroll down to the bottom of the tab
      there is an alternate intro that only uses
      one guitar, check it out. enjoy

Intro:
(guitar one)
------------------------------------------
--12-------------7------------------------
-----12-------12---7----------------------
--------12--7-----------------------------
------------------------------------------
-(all harmonics)--------------------------\
                                           \ play 3
(guitar two)                               /  times
------------------------------------------/
------------------------------------------
-----------------------5-5-5--5-5-5-------
-----------------------5-5-5--5-5-5-------
-----------------------3-3-3--3-3-3-------
------------------------------------------


-(play fourth time)-----------------------
------------------------------------------
--7-7-7--7-7-7----------------------------
--7-7-7--7-7-7----------------------------
--5-5-5--5-5-5----------------------------
------------------------------------------

Verse:
Am I loud and clear, or am I...
------------------------------------------
------------------------------------------
-9-9-9---------5-5-5--5-5-5---------------
-9-9-9--5-5-5--5-5-5--5-5-5----(x3)-------
-7-7-7--5-5-5--3-3-3--3-3-3---------------
--------3-3-3-----------------------------

------------------------------------------
------------------------------------------
-7-7-7--7-7-7--7-7-7--7-7-7---------------
-7-7-7--7-7-7--7-7-7--7-7-7---------------
-5-5-5--5-5-5--5-5-5--5-5-5---------------
------------------------------------------

Chorus:
We live on front porches...
------------------------------------------
------------------------------------------
-9-9-9---------7-7-7--7-7-7---------------
-9-9-9--5-5-5--7-7-7--7-7-7---------------
-7-7-7--5-5-5--5-5-5--5-5-5---------(x4)--
--------3-3-3-----------------------------

Verse:
I've been here so long...
------------------------------------------
------------------------------------------
-9-9-9---------5-5-5--5-5-5---------------
-9-9-9--5-5-5--5-5-5--5-5-5----(x3)-------
-7-7-7--5-5-5--3-3-3--3-3-3---------------
--------3-3-3-----------------------------

------------------------------------------
------------------------------------------
-7-7-7--7-7-7--7-7-7--7-7-7---------------
-7-7-7--7-7-7--7-7-7--7-7-7---------------
-5-5-5--5-5-5--5-5-5--5-5-5---------------
------------------------------------------

Chorus:
Chorus:
We live on front porches...
------------------------------------------
------------------------------------------
-9-9-9---------7-7-7--7-7-7---------------
-9-9-9--5-5-5--7-7-7--7-7-7---------------
-7-7-7--5-5-5--5-5-5--5-5-5---------(x4)--
--------3-3-3-----------------------------

Outro:
Swing life away...
------------------------------------------
------------------------------------------
-9-9-9---------5-5-5--5-5-5---------------
-9-9-9--5-5-5--5-5-5--5-5-5---------------
-7-7-7--5-5-5--3-3-3--3-3-3---------------
--------3-3-3-----------------------------

------------------------------------------
------------------------------------------
-9-9-9---------5-5-5--5-5-5---------------
-9-9-9--5-5-5--5-5-5--5-5-5---------------
-7-7-7--5-5-5--3-3-3--3-3-3---------------
--------3-3-3-----------------------------

------------------------------------------
------------------------------------------
-9-9-9----------------5-5-5---------------
-9-9-9--5-5-5--7-7-7--5-5-5---------------
-7-7-7--5-5-5--7-7-7--3-3-3---------------
--------3-3-3--5-5-5----------------------

----------------------------------------------
------------------------------------8---------
-9-9-9---------5-5-5--5-5-5--5-5-5----7----9--
-9-9-9--5-5-5--5-5-5--5-5-5--5-5-5---------9--
-7-7-7--5-5-5--3-3-3--3-3-3--3-3-3------10-7--
--------3-3-3---------------------------------




Alternate Intro:
(for one guitar)
------------------------------------------
--12-------------7------------------------
-----12-------12--------------------------
--------12--7-------10-10-10--10-10-10----
--------------------10-10-10--10-10-10----
-(all harmonics)-----8--8--8---8--8--8----

------------------------------------------
--12-------------7------------------------
-----12-------12--------------------------
--------12--7-------10-10-10--12-12-12----
--------------------10-10-10--12-12-12----
-(all harmonics)-----8--8--8--10-10-10----


rise against go acoustic
who knew?
            
Submit corrections

comments powered by Disqus
↑ Back to top | Rise Against Tabs for Swing Life Away. Lyrics for acoustic guitar and electric guitar. 1 Tablatures and chords are parodies/interpretations of the original songs. You may use it for private study, scholarship, research or language learning purposes only