» » »

Black Masks And Gasoline Tabs (ver.2)

Artists:  A B C D E F G H I J K L M N O P Q R S T U V W X Y Z # 

Black Masks And Gasoline Tabs (ver.2)

Rise Against
Rating:
0/5 (0 votes)

Hard to play? Try these video lessons and learn fast.
                Tuning: Standard (EBGDAE)

Notes:  Here's the tab, I'm 99% sure that the notes are correct, so far I've got
everything but the 4th chorus time (I'm having ahard time differentiating the two
guitar parts, if *anyone* knows how it goes, please e-mail me and you will be credited)

Also, throughout the whole song, 2 guitars are used, where one keeps playing the heavy
parts to keep the whole song heavy.  However, it sounds absolutely fine with one guitar.

Anyways, in the tab E is equal to 11. 

Have fun and enjoy, it's a great song to play.

Intro (2x)

E|-------------------------------------------------------------------||
B|-------------------------------------------------------------------||
G|-2-----2--4----4-----4--6------------------------------------------||
D|-2--2--2--4----4--2--4--6--6---------------------------------------||
A|-0--2--0--2----2--4--2--4--6---------------------------------------||
E|----0-------------4--------4---------------------------------------||

Verse (x4) (I'm not exactly sure of the sturmming pattern here, but if you listen
to the song you should be able to figure it out pretty easily.)


Verse (4x)

E|---------------------------------||
B|---------------------------------||
G|-------9-----------E-------------||
D|--6----9-----9-----E-------------||
A|--6----7-----9-----9-------------||
E|--4----------7-------------------||

|___________|
  1 2 3+ 4+ (or something like that)
  Per chord.

Transition

|----------------|----------------||
|----------------|----------------||
|-9-9-9-9-9------|----------------||
|-9-9-9-9-9-9----|-4-4-4--44-55---||
|-7-7-7-7-7-9--- |-4-4-4--44-55---||
|-----------7----|-2-2-2--22-33---||

Chorus (1st and 3rd times)


E|----------------|----------------|----------------|----------------||
B|----------------|----------------|----------------|----------------||
G|----------------|-EEE--999-------|-9--8--9--E-----|----------------||
D|-6--6--4--------|-EEE--999-------|-9--8--9--E-----|----------------||
A|-6--6--4--------|-999--777-------|-7--6--7--9-----|----------------||
E|-4--4--2------- |----------------|----------------|----------------||

Chorus (Second Time)

E|----------------|----------------|----------------|----------------||
B|----------------|----------------|----------------|----------------||
G|----------------|-EEE--999-------|-9--8--6--4-----|----------------||
D|-6--6--4--------|-EEE--999-------|-9--8--6--4-----|----------------||
A|-6--6--4--------|-999--777-------|-7--6--4--2-----|----------------||
E|-4--4--2------- |----------------|----------------|----------------||

Bridge (1st and 3rd time)

Note: During the bridge, in the first measure of the 3 G# powerchords, the little squeaky
effect between the chords is created by lifting your weight on thje string so you are
only touching it a little bit, then strike the low e.  Add some distortion, and there you have it.
E|----------------|-----------------||
B|----------------|-----------------||
G|----------------|-9-----E---------||
D|-6-6-6----------|-9--9--E--E------||
A|-6-6-6----------|-7--9--9--E------||
E|-4-4-4----------|----7-----9------||

Bridge (2nd and 4th times)

Same rule about the squeaking sound as above.

E|----------------|-----------------||
B|----------------|-----------------||
G|----------------|-----------------||
D|-6-6-6----------|-9--99--E--EE----||
A|-6-6-6----------|-9--99--E--EE----||
E|-4-4-4----------|-7--77--9--99----||

Structure Recap:
Intro - 2x
Verse - 4x
Transition - 1x
Chorus - All 4 parts played once
verse - 4x
Transition - 1x
Chorus - All 4 parts played once
Bridge
Verse - Two times without guitar, then twice with guitar
Transition
Chorus - all 4 parts played once
End on first note of bridge




That's pretty much the whole song, if you have any
tab.  Thanks and play on.
            
Hard to play? Try these video lessons and learn fast. | Correct




comments powered by Disqus
↑ Back to top | Tablatures and chords are parodies/interpretations of the original songs. You may use it for private study, scholarship, research or language learning purposes only