» » »

Rise Against, Black Masks And Gasoline Bass tabs (ver.1)

Artists:  A B C D E F G H I J K L M N O P Q R S T U V W X Y Z # 

Black Masks And Gasoline Bass tabs (ver.1)

Rise Against Tabs
Rating:
0/5 (0 votes)
Black Masks And Gasoline lessons Tabs too difficult? Try these video lessons and learn fast
                Rise Against
Black Masks and Gasoline
Bassist: Joe

Tuning: EADG

~ - let ring/play several times
^ - hammer on

Intro
G|-------------------------------------------------
D|-------------------------------------------------
A|----------2----------2-4----------------------------
E|--5-0-5--------2-2---------4~ ---------------------

Verse
G|-------------------------------------------------------
D|---------2~ ---------4~ -------------------------------------
A|---------------2~ -----------------------------------------
E|---4~ -------------------------------------------------

Chorus
G|------------------------------------------------------
D|-----------4---2~ --4-2-0-2-------------------4--2~ --4--2--1--0-------------4--2-0- 
A|---------------------------------------------------------------------------------------------4-3-2~
E|--4-3-2-----------------------------4-3-2------------------------------4-3-2--------------------3-3-

Solo (during second verse)
G|--------------8-8------------------------------------------------8~ --9-8-----------
D|--8--9--11--------11-11--9-9-8-8-9-9-8-8------------------------------11~ ----
A|---------------------------------------------------11-11-9-9--
E|--------------------------------------------------------

Bridge
G|----------------------------------------------------------------
D|----------------------------------------------------------------
A|------------------------------------------------2---------------------------222-444----
E|--444---------4444-------444-------4-2-0------444----4444----444------------------------------

Solo #2 (main riff with transition notes)
G|---------------------------------------------------------------------
D|---------------------------------------------------------------------
A|--------4^6---7~ -------7^9~ ---------------------------------------------------
E|--4~ ---------------7~----------------------------------------------------
            
Submit corrections

comments powered by Disqus
↑ Back to top | Rise Against Bass for Black Masks And Gasoline. Lyrics for acoustic guitar and electric guitar. Tablatures and chords are parodies/interpretations of the original songs. You may use it for private study, scholarship, research or language learning purposes only