>
 >
Architects

Architects Guitar Tabs

Rise Against - Architects chords, tabs, tablatures, lyrics

Guitar lessons | Add/correct | Request | Top 50 tabs Artists:  A B C D E F G H I J K L M N O P Q R S T U V W X Y Z 0-9

Architects Guitar Tabs – Rise Against

CD, Sheet music, Poster

Do you like Architects? Share with your friends now
Bass TabsBass Tabs v2ChordsTabsTabs v2Ukulele

I'm pretty sure this tab is 100% right.

Check this guy's video to make it easier to learn the song. 



INTRO
E|----
B|-11-
G|---- x32
D|-8--
A|----
E|----


Here the drums, the bass and the rhythm guitar will start.
E|------------------------------------------------|
B|-11-11-9-9-6-6-6-6-14-14-13-13--11-11-11~-------|
G|-------------------13-13-13-13--10-10-10~-------|
D|-8--8--8-8-8-8-8-8--------------8--8--8~--------|
A|------------------------------------------------|
E|------------------------------------------------|


RHYTHM GUITAR (Intro)
E|------------------------------------------|
B|------------------------------------------|
G|----------------------------8-8-----------|
D|-8-8-8--11--8-8-8--11--4-4--8-8--8-8-8-8--|
A|-8-8-8--11--8-8-8--11--4-4--6-6--8-8-8-8--|
E|-6-6-6--9---6-6-6--9---2-2-------6-6-6-6--|

VERSE 1
E|------------------------------------------|
B|------------------------------------------|
G|----------------------------8-8-----------|
D|-8-8-8--11--8-8-8--11--4-4--8-8--8-8-8-8--| 2x
A|-8-8-8--11--8-8-8--11--4-4--6-6--8-8-8-8--|
E|-6-6-6--9---6-6-6--9---2-2-------6-6-6-6--|


PRE-CHORUS 1 (Fill)
E|------------------------------6/8/9~-|
B|----------------------------8--------|
G|---------7-8-7----8-10-8-10----------|
D|-10-8-10-------10--------------------|
A|-------------------------------------|
E|-------------------------------------|


CHORUS 1
E|-------------------------------------------------------|
B|-------------------------------------------------------|
G|------6-6------------------------6-6-------------------|
D|-4-4--6-6--6-6--8-8---------4-4--6-6--6-6--8--6--------|
A|-4-4--4-4--6-6--8-8---------4-4--4-4--6-6--8--6--------|
E|-2-2-------4-4--6-6---------2-2-------4-4--6--4--------|


E|--------------------------|
B|--------------------------|
G|------6-6-----------------|
D|-4-4--6-6--6-6--8-8-------|
A|-4-4--4-4--6-6--8-8-------|
E|-2-2-------4-4--6-6-------|



E|------------------|
B|------------------|
G|------------------|
D|-4-4-4-4--6-6-6-6-|
A|-4-4-4-4--6-6-6-6-|
E|-2-2-2-2--4-4-4-4-|



E|--18---18---18---18----13---13---13--|
B|--21b--21b--21b--21b---16b--16b--16b-|
G|-------------------------------------|
D|-------------------------------------|
A|-------------------------------------|
E|-------------------------------------|


VERSE 2
E|---------------------------------|
B|---------------------------------|
G|---------------------------------|
D|--8------------------------------|
A|--8------------------------------|
E|--6-------------------pickslide--|


E|------------------------------------------|
B|------------------------------------------|
G|----------------------------8-8-----------|
D|-8-8-8--11--8-8-8--11--4-4--8-8--8-8-8-8--|
A|-8-8-8--11--8-8-8--11--4-4--6-6--8-8-8-8--|
E|-6-6-6--9---6-6-6--9---2-2-------6-6-6-6--|

PRE-CHORUS 2 (Fill)
E|------------------------------6/8/9~-|
B|----------------------------8--------|
G|---------7-8-7----8-10-8-10----------|
D|-10-8-10-------10--------------------|
A|-------------------------------------|
E|-------------------------------------|


CHORUS 2
E|-------------------------------------------------------|
B|-------------------------------------------------------|
G|------6-6------------------------6-6-------------------|
D|-4-4--6-6--6-6--8-8---------4-4--6-6--6-6--8--6--------|
A|-4-4--4-4--6-6--8-8---------4-4--4-4--6-6--8--6--------|
E|-2-2-------4-4--6-6---------2-2-------4-4--6--4--------|


E|--------------------------|
B|--------------------------|
G|------6-6-----------------|
D|-4-4--6-6--6-6--8-8-------|
A|-4-4--4-4--6-6--8-8-------|
E|-2-2-------4-4--6-6-------|



E|------------------|
B|------------------|
G|------------------|
D|-4-4-4-4--6-6-6-6-|
A|-4-4-4-4--6-6-6-6-|
E|-2-2-2-2--4-4-4-4-|

BRIDGE

Start with some pickslides for two bars.

E|----------|
B|----------|
G|----------|
D|-8-8--8-8-| 6x
A|-8-8--8-8-|
E|-6-6--6-6-|

I haven't figured out this part yet, but I'll add it as soon as possible.

CHORUS 3
E|-------------------------------------------------------|
B|-------------------------------------------------------|
G|------6-6------------------------6-6-------------------|
D|-4-4--6-6--6-6--8-8---------4-4--6-6--6-6--8--6--------|
A|-4-4--4-4--6-6--8-8---------4-4--4-4--6-6--8--6--------|
E|-2-2-------4-4--6-6---------2-2-------4-4--6--4--------|


E|--------------------------|
B|--------------------------|
G|------6-6-----------------|
D|-4-4--6-6--6-6--8-8-------|
A|-4-4--4-4--6-6--8-8-------|
E|-2-2-------4-4--6-6-------|



E|------------------|
B|------------------|
G|------------------|
D|-4-4-4-4--6-6-6-6-|
A|-4-4-4-4--6-6-6-6-|
E|-2-2-2-2--4-4-4-4-|





Comments


Popular Rise Against tabs & chords
Dancing For Rain Bass Tabs
Dancing For Rain 3 Bass Tabs
Hero Of War 4 Chords
Life Less Frightening Chords
Like The Angel Drum Tabs
Behind Closed Doors 2 Tabs
Heaven Knows 2 Tabs
Stained Glass And Marble Tabs
The Dirt Whispered Tabs
Worth Dying For 1 Tabs


Song lyrics



↑ Back to top | Tablatures and chords are parodies/interpretations of the original songs. You may use it for private study, scholarship, research or language learning purposes only
© 2014 AZChords.com Contact us | Privacy policy | DMCA | Add/correct tabs | Request tabs | Top 50 tabs