>
 >
Architects 1

Architects 1 Guitar Tabs

Rise Against - Architects 1 chords, tabs, tablatures, lyrics

Guitar lessons | Add/correct | Request | Top 50 tabs Artists:  A B C D E F G H I J K L M N O P Q R S T U V W X Y Z 0-9

Architects 1 Guitar Tabs – Rise Against

CD, Sheet music, Poster

Do you like Architects 1? Share with your friends now
Bass TabsBass Tabs v2ChordsTabsTabs v2Ukulele
Rise Against - Architects

Amazing song, first off their new album, Endgame. I only tabbed lead guitar because the
lead idn't that hard and it took me so long that i couldn't really be bothered writing
rhythm out. The rhythm only plays something different during the second part of the 
bridge and the intro so you're not missing much out.

Tuning; Half Step Down, ebBbGbDbAbEb just like every other Rise Against song :)

Listen To Song for timings

Intro

eb-----
Bb-----
Gb-16-- (x32)
Db-----
Ab-14--
Eb-----

eb---------------------------------|
Bb---------------------------------|
Gb-16--(x16)--14--(x16)--11--(x32)-|
Db---------------------------------|
Ab-14---------12---------9---------|
Eb---------------------------------|


eb---------------------------------|
Bb---------------------------------|
Gb-19--(x16)--18--(x16)--16--(x16)-|
Db---------------------------------|
Ab-17---------16---------14--------|
Eb---------------------------------|

eb-------------------|
Bb-------------------|
Gb-16~~-\\\\\\\\-----|
Db-------\\\\\\\\----| (pickslide)
Ab-14~~--\\\\\\\\\---|
Eb-------------------|

Verse:

eb---------------------|-------------------|
Bb---------------------|-------------------|
Gb-4-4-4-4-4-4-4-4-4-4-|-4-4-4-4-4-4-7-7-7-|
Db-4-4-4-4-4-4-4-4-4-4-|-4-4-4-4-4-4-7-7-7-|
Ab-2-2-2-2-2-2-2-2-2-2-|-2-2-2-2-2-2-5-5-5-|
Eb---------------------|-------------------|

eb---------------------|-------------------|
Bb---------------------|-------------------|
Gb-4-4-4-4-4-4-4-4-4-4-|-4-4-4-4-4-4-7-7---|
Db-4-4-4-4-4-4-4-4-4-4-|-4-4-4-4-4-4-7-7-7-|
Ab-2-2-2-2-2-2-2-2-2-2-|-2-2-2-2-2-2-5-5-7-|
Eb---------------------|-----------------5-|

eb---------------------|-------------------|
Bb---------------------|-------------------|
Gb---------------------|-------------------|
Db-5-5-5-5-5-5-5-5-5-5-|-5-5-5-5-5-5-2-2-2-|
Ab-5-5-5-5-5-5-5-5-5-5-|-5-5-5-5-5-5-2-2-2-|
Eb-3-3-3-3-3-3-3-3-3-3-|-3-3-3-3-3-3-0-0-0-|
                                     . . . .
eb---------------------|---------------------|
Bb---------------------|---------------------|
Gb-4-4-4-4-4-4-4-4-4-4-|-4-4-4-4-4-4---------|
Db-4-4-4-4-4-4-4-4-4-4-|-4-4-4-4-4-4-4-4-4-4-|
Ab-2-2-2-2-2-2-2-2-2-2-|-2-2-2-2-2-2-2-2-2-2-|
Eb---------------------|---------------------|

eb---------------------|-------------------|
Bb---------------------|-------------------|
Gb-4-4-4-4-4-4-4-4-4-4-|-4-4-4-4-4-4-7-7-7-|
Db-4-4-4-4-4-4-4-4-4-4-|-4-4-4-4-4-4-7-7-7-|
Ab-2-2-2-2-2-2-2-2-2-2-|-2-2-2-2-2-2-5-5-5-|
Eb---------------------|-------------------|

eb---------------------|-------------------|
Bb---------------------|-------------------|
Gb-4-4-4-4-4-4-4-4-4-4-|-4-4-4-4-4-4-7-7---|
Db-4-4-4-4-4-4-4-4-4-4-|-4-4-4-4-4-4-7-7-7-|
Ab-2-2-2-2-2-2-2-2-2-2-|-2-2-2-2-2-2-5-5-7-|
Eb---------------------|-----------------5-|

eb---------------------|-------------------|
Bb---------------------|-------------------|
Gb---------------------|-------------------|
Db-5-5-5-5-5-5-5-5-5-5-|-5-5-5-5-5-5-2-2-2-|
Ab-5-5-5-5-5-5-5-5-5-5-|-5-5-5-5-5-5-2-2-2-|
Eb-3-3-3-3-3-3-3-3-3-3-|-3-3-3-3-3-3-0-0-0-|

eb---------------------|
Bb---------------------|
Gb-4-4-4-4-4-4-4-4-4-4-|
Db-4-4-4-4-4-4-4-4-4-4-|
Ab-2-2-2-2-2-2-2-2-2-2-|
Eb---------------------|

Pre - Chorus:
eb-----------------|-------------------|-/10~~~--------|
Bb-----------------|-7---7-8-10-7-8-10-|---------------|
Gb-------6-7-6-7-9-|---9---------------|---------------|
Db-9-7-9-----------|-------------------|---------------|
Ab-----------------|-------------------|---------------|
Eb-----------------|-------------------|---------------|

Chorus:
eb----------------|--------------|----------------|--------------|
Bb----------------|--------------|----------------|--------------|
Gb--------------7-|--7-7--7-7-7--|----------------|--------------|
Db-5-5-5--5-5-5-7-|--7-7--7-7-7--|-7-7-7--7-7-7-9-|--9-9--9-9-9--|
Ab-5-5-5--5-5-5-5-|--5-5--5-5-5--|-7-7-7--7-7-7-9-|--9-9--9-9-9--|
Eb-3-3-3--3-3-3---|--------------|-5-5-5--5-5-5-7-|--7-7--7-7-7--|

eb----------------|--------------|----------------|---------------|
Bb----------------|--------------|----------------|---------------|
Gb--------------7-|--7-7--7-7-7--|----------------|---------------|
Db-5-5-5--5-5-5-7-|--7-7--7-7-7--|-7-7-7--7-7-7-9-|--9-9-7--7-7---|
Ab-5-5-5--5-5-5-5-|--5-5--5-5-5--|-7-7-7--7-7-7-9-|--9-9-7--7-7---|
Eb-3-3-3--3-3-3---|--------------|-5-5-5--5-5-5-7-|--7-7-5--5-5---|

eb----------------|--------------|----------------|--------------|
Bb----------------|--------------|----------------|--------------|
Gb--------------7-|--7-7--7-7-7--|----------------|--------------|
Db-5-5-5--5-5-5-7-|--7-7--7-7-7--|-7-7-7--7-7-7-9-|--9-9--9-9-9--|
Ab-5-5-5--5-5-5-5-|--5-5--5-5-5--|-7-7-7--7-7-7-9-|--9-9--9-9-9--|
Eb-3-3-3--3-3-3---|--------------|-5-5-5--5-5-5-7-|--7-7--7-7-7--|

eb----------------|----------------|----------------|--------------|
Bb----------------|----------------|----------------|--------------|
Gb----------------|----------------|----------------|--------7-----|
Db-5-5-5--5-5-5---|-5-5-5--5-5-5---|-7-7-7--7-7-7---|-7------7-----|
Ab-5-5-5--5-5-5---|-5-5-5--5-5-5---|-7-7-7--7-7-7---|-7------5-----|
Eb-3-3-3--3-3-3---|-3-3-3--3-3-3---|-5-5-5--5-5-5---|-5------------|

Break

eb-19--19----19--19---|-19--19----19--19--19-|
Bb-22b-22b---22b-22b--|-22b-22b---22b-22b-22-|
Gb--------------------|----------------------|
Db--------------------|----------------------|
Ab--------------------|----------------------|
Eb--------------------|----------------------|

eb-14--14----14--14---|-14-------------------|
Bb-17b-17b---17b-17b--|-17b------------------|
Gb--------------------|----------------------|
Db--------------------|----------------------|
Ab--------------------|----------------------|
Eb--------------------|----------------------|

Repeat Verse, Pre-Chorus and Chorus again the play this next section.

Bridge

eb------------------|--------------|
Bb------------------|--------------|
Gb-4----------------|//////\\\\\---|
Db-4----------------|//////\\\\\\--|
Ab-2----------------|///////\\\\\\-| (pick scraping noises)
Eb------------------|///////\\\\\\-|

eb------------------|------------------|-------------------|---------------|
Bb------------------|------------------|-------------------|---------------|
Gb-4-4----4-4-------|-4-4----4-4-------|-4-4----4-4--------|-4-4----4-4----|
Db-4-4----4-4-------|-4-4----4-4-------|-4-4----4-4--------|-4-4----4-4----|
Ab-2-2----2-2-------|-2-2----2-2-------|-2-2----2-2--------|-2-2----2-2----|
Eb------------------|------------------|-------------------|---------------|

eb------------------|------------------|-------------------|---------------|
Bb------------------|------------------|-------------------|---------------|
Gb-7-7----7-7-------|-6-6----6-6-------|-4-4----4-4--------|-4-4----4-4----|
Db------------------|------------------|-4-4----4-4--------|-4-4----4-4----|
Ab-5-5----5-5-------|-4-4----4-4-------|-2-2----2-2--------|-2-2----2-2----|
Eb------------------|------------------|-------------------|---------------|

eb-----------------|-----------------|-----------------|-----------------|
Bb-----------------|-----------2-2-3-|-----------------|-----------2-2-3-|
Gb-4-4-4-4-4-4-4-4-|-4-2-2-4-4-------|-4-4-4-4-4-4-4-4-|-4-2-2-4-4-------|
Db-----------------|-----------------|-----------------|-----------------|
Ab-----------------|-----------------|-----------------|-----------------|
Eb-----------------|-----------------|-----------------|-----------------|

eb----------------------------|
Bb----------------------------|
Gb-7--(x8)--6--(x8)-11--(x16--|
Db----------------------------|
Ab-5--------4-------9---------|
Eb----------------------------|

eb-------------|--------------|---------------|-----|
Bb-------------|----[7]-------|---------------|-----|
Gb-11----------|T---------[7]-|---------------|-----|
Db-------------|--------------|[7]------------|T----|
Ab-9-----------|T-------------|---------------|-----|
Eb-------------|--------------|---------------|-----|
   . . .   .   .   . . . .      .
eb-------5---3---2--------3-2-3---|
Bb-3-3-3-3-3-3-3-3-3-3-3-3------3-|
Gb--------------------------------|
Db--------------------------------|
Ab--------------------------------|
Eb--------------------------------|
   . . .   .   .   . . . .      .
eb-------5---3---2--------3-2-3---|
Bb-3-3-3-3-3-3-3-3-3-3-3-3------3-|
Gb--------------------------------|
Db--------------------------------|
Ab--------------------------------|
Eb--------------------------------|
   . . .   .   .   . . . .      .
eb-------5---3---2--------3-2-3---|
Bb-3-3-3-3-3-3-3-3-3-3-3-3------3-|
Gb--------------------------------|
Db--------------------------------|
Ab--------------------------------|
Eb--------------------------------|

eb-------5---3---2-----------|
Bb-3-3-3-3-3-3-3-3-----------|
Gb---------------------------|
Db------------------9----7---|
Ab------------------9----7---|
Eb------------------7----5---|

Chorus 3:

eb----------------|--------------|----------------|--------------|
Bb----------------|--------------|----------------|--------------|
Gb--------------7-|--7-7--7-7-7--|----------------|--------------|
Db-5-5-5--5-5-5-7-|--7-7--7-7-7--|-7-7-7--7-7-7-9-|--9-9--9-9-9--|
Ab-5-5-5--5-5-5-5-|--5-5--5-5-5--|-7-7-7--7-7-7-9-|--9-9--9-9-9--|
Eb-3-3-3--3-3-3---|--------------|-5-5-5--5-5-5-7-|--7-7--7-7-7--|

eb----------------|--------------|----------------|---------------|
Bb----------------|--------------|----------------|---------------|
Gb--------------7-|--7-7--7-7-7--|----------------|---------------|
Db-5-5-5--5-5-5-7-|--7-7--7-7-7--|-7-7-7--7-7-7-9-|--9-9-7--7-7---|
Ab-5-5-5--5-5-5-5-|--5-5--5-5-5--|-7-7-7--7-7-7-9-|--9-9-7--7-7---|
Eb-3-3-3--3-3-3---|--------------|-5-5-5--5-5-5-7-|--7-7-5--5-5---|

eb----------------|--------------|----------------|--------------|
Bb----------------|--------------|----------------|--------------|
Gb--------------7-|--7-7--7-7-7--|----------------|--------------|
Db-5-5-5--5-5-5-7-|--7-7--7-7-7--|-7-7-7--7-7-7-9-|--9-9--9-9-9--|
Ab-5-5-5--5-5-5-5-|--5-5--5-5-5--|-7-7-7--7-7-7-9-|--9-9--9-9-9--|
Eb-3-3-3--3-3-3---|--------------|-5-5-5--5-5-5-7-|--7-7--7-7-7--|

eb----------------|----------------|----------------|--------------|
Bb----------------|----------------|----------------|--------------|
Gb----------------|----------------|----------------|--------------|
Db-5-5-5--5-5-5---|-5-5-5--5-5-5---|-7-7-7--7-7-7---|-7-7-7--7-7-7-|
Ab-5-5-5--5-5-5---|-5-5-5--5-5-5---|-7-7-7--7-7-7---|-7-7-7--7-7-7-|
Eb-3-3-3--3-3-3---|-3-3-3--3-3-3---|-5-5-5--5-5-5---|-5-5-5--5-5-5-|

Key
b = Full bend
T = Tied note
/ = Slide into
[7] = Natural Harmonic
\\\\ = Pickslide

And that's it. Hope you guys appreciate this tab, took me ages to do. May be a little
confusing but its 99% if not 100% correct. Cheers guys, Jack.





Comments


Popular Rise Against tabs & chords
Audience Of One Bass Tabs
Audience Of One 3 Bass Tabs
Drones Bass Tabs
Heaven Knows Bass Tabs
Swing Life Away 2 Bass Tabs
Blind Tabs
Entertainment Tabs
Give It All 4 Tabs
Rumors Of My Demise Have Been Greatly Exaggerated Tabs
Sight Unseen Tabs


Song lyrics



↑ Back to top | Tablatures and chords are parodies/interpretations of the original songs. You may use it for private study, scholarship, research or language learning purposes only
© 2014 AZChords.com Contact us | Privacy policy | DMCA | Add/correct tabs | Request tabs | Top 50 tabs