» » »

Rise Against, Architects Bass tabs (ver.1)

Artists:  A B C D E F G H I J K L M N O P Q R S T U V W X Y Z # 

Architects Bass tabs (ver.1)

Rise Against Tabs
 Rating:
4/5 (4 votes)
Architects lessons Tabs too difficult? Try these video lessons and learn fast
1
                

Tuning: Half Step Down (Eb, Ab, Db, Gb)



Intro

 Wait, and then.
 
Gb|-----------------|-----------------|-----------------|-----------------|
Db|-----------------|---------Triplets|-----------------|---------Triplets|
Ab|-2-2-----2-2-----|-2-2-----5--5--5-|-2-2-----2-2-----|-2-2-----5--5--5-|
Eb|-----------------|-----------------|-----------------|-----------------|
    1 + 2 + 3 + 4 +   1 + 2 + 3 + 4 +   1 + 2 + 3 + 4 +   1 + 2 + 3 + 4 +

Gb|-----------------|-----------------|-----------------|-----------------|
Db|-----------------|---------Triplets|-----------------|-----------------|
Ab|-2-2-----2-2-----|-2-2-----5--5--5-|-2-2-----2-2-----|-2---------------|
Eb|-----------------|-----------------|-----------------|-----------------|
    1 + 2 + 3 + 4 +   1 + 2 + 3 + 4 +   1 + 2 + 3 + 4 +   1 + 2 + 3 + 4 +


 Verse

Gb|-----------------|-----------------|-----------------|-----------------|
Db|-----------------|-----------------|-----------------|-----------------|
Ab|-2-22-22-2-22-22-|-2-22-22-5-55-55-|-2-22-22-2-22-22-|-2-22-22-5-55-55-|
Eb|-----------------|-----------------|-----------------|-----------------|
    1 + 2 + 3 + 4 +   1 + 2 + 3 + 4 +   1 + 2 + 3 + 4 +   1 + 2 + 3 + 4 +

Gb|-----------------|-----------------|-----------------|-----------------|
Db|-----------------|-----------------|-----------------|----------.---.--|
Ab|-----------------|-----------------|-2-22-22-2-22-22-|-2-22-22-22--22--|
Eb|-3-33-33-3-33-33-|-3-33-33-0-00-00-|-----------------|-----------------|
    1 + 2 + 3 + 4 +   1 + 2 + 3 + 4 +   1 + 2 + 3 + 4 +   1 + 2 + 3 + 4 +

Gb|-----------------|-----------------|-----------------|-----------------|
Db|-----------------|-----------------|-----------------|-----------------|
Ab|-2-22-22-2-22-22-|-2-22-22-5-55-55-|-2-22-22-2-22-22-|-2-22-22-5-55-55-|
Eb|-----------------|-----------------|-----------------|-----------------|
    1 + 2 + 3 + 4 +   1 + 2 + 3 + 4 +   1 + 2 + 3 + 4 +   1 + 2 + 3 + 4 +

Gb|-----------------|-----------------|-----------------|
Db|-----------------|-----------------|-----------------|
Ab|-----------------|-----------------|-2-22-22-2-22-22-|
Eb|-3-33-33-3-33-33-|-3-33-33-0-00-00-|-----------------|
    1 + 2 + 3 + 4 +   1 + 2 + 3 + 4 +   1 + 2 + 3 + 4 +  



 Pre-Chorus

Gb|-----------------|-----------------|
Db|-----------------|-----------------|
Ab|-0-0-0-0-0-0-0-0-|-0-0-0-0-0-0-----|
Eb|-----------------|-------------7//-|
    1 + 2 + 3 + 4 +   1 + 2 + 3 + 4 +   



 Chorus

Gb|-----------------|-----------------|-----------------|-----------------|
Db|-----------------|-----------------|-----------------|-----------------|
Ab|---------------5-|---5-5-5-5-5-5-5-|-0-0-0-0-0-0-0-2-|---2-2-2-2-2-2-2-|
Eb|-3-3-3-3-5-3-----|-----------------|-----------------|-----------------|
    1 + 2 + 3 + 4 +   1 + 2 + 3 + 4 +   1 + 2 + 3 + 4 +   1 + 2 + 3 + 4 +

Gb|-----------------|-----------------|-----------------|-----------------|
Db|-----------------|-----------------|-----------------|-----------------|
Ab|---------------5-|---5-5-5-5-5-5-5-|-0-0-0-0-0-0-0-2-|-----2---0---0---|
Eb|-3-3-3-3-5-3-----|-----------------|-----------------|-----------------|
    1 + 2 + 3 + 4 +   1 + 2 + 3 + 4 +   1 + 2 + 3 + 4 +   1 + 2 + 3 + 4 +

Gb|-----------------|-----------------|-----------------|-----------------|
Db|-----------------|-----------------|-----------------|-----------------|
Ab|---------------5-|---5-5-5-5-5-5-5-|-0-0-0-0-0-0-0-2-|---2-2-2-2-2-2---|
Eb|-3-3-3-3-5-3-----|-----------------|-----------------|---------------0-|
    1 + 2 + 3 + 4 +   1 + 2 + 3 + 4 +   1 + 2 + 3 + 4 +   1 + 2 + 3 + 4 +

Gb|-----------------|-----------------|-----------------|-----------------|
Db|-----------------|/5-5-7-7-5-5-4-4-|-----------------|-----------------|
Ab|-----------------|-----------------|-0-0-0-0-0-0-0-0-|-0-------5-------|
Eb|-3-3-3-3-3-3-3-3-|-----------------|-----------------|-----------------|
    1 + 2 + 3 + 4 +   1 + 2 + 3 + 4 +   1 + 2 + 3 + 4 +   1 + 2 + 3 + 4 +



 Interlude

Gb|-----------------|-----------------|-----------------|-----------------|
Db|-----------------|---------Triplets|-----------------|-----------------|
Ab|-2-2-----2-2-----|-2-2-----5--5--5-|-2-2-----2-2-----|-2---------------|
Eb|-----------------|-----------------|-----------------|-----------------|
    1 + 2 + 3 + 4 +   1 + 2 + 3 + 4 +   1 + 2 + 3 + 4 +   1 + 2 + 3 + 4 +



 Verse

Gb|-----------------|-----------------|-----------------|-----------------|
Db|-----------------|-----------------|-----------------|-----------------|
Ab|-2-22-22-2-22-22-|-2-22-22-5-55-55-|-2-22-22-2-22-22-|-2-22-22-5-5-5-5-|
Eb|-----------------|-----------------|-----------------|-----------------|
    1 + 2 + 3 + 4 +   1 + 2 + 3 + 4 +   1 + 2 + 3 + 4 +   1 + 2 + 3 + 4 +

Gb|-----------------|-----------------|-----------------|-----------------|
Db|-----------------|-----------------|-----------------|----------.---.--|
Ab|-----------------|-----------------|-2-22-22-2-22-22-|-2-22-22-22--22--|
Eb|-3-33-33-3-33-33-|-3-33-33-0-00-00-|-----------------|-----------------|
    1 + 2 + 3 + 4 +   1 + 2 + 3 + 4 +   1 + 2 + 3 + 4 +   1 + 2 + 3 + 4 +

Gb|-----------------|-----------------|-----------------|-----------------|
Db|-----------------|-----------------|-4-44-45-4-4--4--|-----------------|
Ab|-2-22-22-2-22-22-|-2-22-22-5-55-57-|------------7--7-|-2-22-22-5-55-55-|
Eb|-----------------|-----------------|-----------------|-----------------|
    1 + 2 + 3 + 4 +   1 + 2 + 3 + 4 +   1 + 2 + 3 + 4 +   1 + 2 + 3 + 4 +

Gb|-----------------|-----------------|-----------------|
Db|-----------------|-----------------|-----------------|
Ab|-----------------|-----------------|-2-22-22-2-22-22-|
Eb|-3-33-33-3-33-33-|-3-33-33-0-00-00-|-----------------|
    1 + 2 + 3 + 4 +   1 + 2 + 3 + 4 +   1 + 2 + 3 + 4 +  




 Pre-Chorus

Gb|-----------------|-----------------|
Db|-----------------|-----------------|
Ab|-0-0-0-0-0-0-0-0-|-0-0-0-0-0-0-----|
Eb|-----------------|-------------7//-|
    1 + 2 + 3 + 4 +   1 + 2 + 3 + 4 +   


 
 Chorus

Gb|-----------------|-----------------|-----------------|-----------------|
Db|-----------------|-----------------|-----------------|-----------------|
Ab|---------------5-|---5-5-5-5-5-5-5-|-0-0-0-0-0-0-0-2-|---2-2-2-2-2-2-2-|
Eb|-3-3-3-3-5-3-----|-----------------|-----------------|-----------------|
    1 + 2 + 3 + 4 +   1 + 2 + 3 + 4 +   1 + 2 + 3 + 4 +   1 + 2 + 3 + 4 +

Gb|-----------------|-----------------|-----------------|-----------------|
Db|-----------------|-----------------|-----------------|-----------------|
Ab|---------------5-|---5-5-5-5-5-5-5-|-0-0-0-0-0-0-0-2-|-----2---0---0---|
Eb|-3-3-3-3-5-3-----|-----------------|-----------------|-----------------|
    1 + 2 + 3 + 4 +   1 + 2 + 3 + 4 +   1 + 2 + 3 + 4 +   1 + 2 + 3 + 4 +

Gb|-----------------|-----------------|----------------------11-|-12-11-------------------|
Db|-----------------|-----------------|-------------------------|-------12//--------------|
Ab|---------------5-|---5-5-5-5-5-5-5-|-12-12-12-12-12-12-12----|-------------------------|
Eb|-3-3-3-3-5-3-----|-----------------|-------------------------|-------------------------|
    1 + 2 + 3 + 4 +   1 + 2 + 3 + 4 +   1  +  2  +  3  +  4  +    1  +  2  +  3  +  4  +

Gb|-----------------|-----------------|-----------------|-----------------|
Db|-----------------|/5-5-4-4-0-0-7-7-|-----------------|-----------------|
Ab|-----------------|-----------------|-0-0-0-0-0-0-0-0-|-0-0-0-0-------0-|
Eb|-3-3-3-3-3-3-3-3-|-----------------|-----------------|---------0-2-3---|
    1 + 2 + 3 + 4 +   1 + 2 + 3 + 4 +   1 + 2 + 3 + 4 +   1 + 2 + 3 + 4 +



 Bridge:

Gb|-----------------|-----------------|-----------------|-----------------|
Db|-----------------|-----------------|-----------------|-----------------|
Ab|-2---2-----------|-2---2-----------|-2---2-----------|-2---2-----------| x 4
Eb|-----------------|-----------------|-----------------|-----------------|
    1 + 2 + 3 + 4 +   1 + 2 + 3 + 4 +   1 + 2 + 3 + 4 +   1 + 2 + 3 + 4 +

Gb|-----------------|-----------------|-----------------|-----------------|
Db|-----------------|-----------------|-----------------|-----------------|
Ab|-----------------|-----------------|-0-0-0-0-0-0-0-0-|-0-0-0-0-0-0-0-0-|
Eb|-3-3-3-3-3-3-3-3-|-3-3-3-3-3-3-3-3-|-----------------|-----------------|
    1 + 2 + 3 + 4 +   1 + 2 + 3 + 4 +   1 + 2 + 3 + 4 +   1 + 2 + 3 + 4 +

Gb|-----------------|-----------------|-----------------|-----------------|
Db|-----------------|-----------------|-----------------|-----------------|
Ab|-2---2-----------|-2---2-----------|-2---2-----------|-2---2-----2-5---|
Eb|-----------------|-----------------|-----------------|-----------------|
    1 + 2 + 3 + 4 +   1 + 2 + 3 + 4 +   1 + 2 + 3 + 4 +   1 + 2 + 3 + 4 +

Gb|-----------------|-----------------|-----------------|-----------------|
Db|-----------------|-----------------|-----------------|-----------------|
Ab|-2---2-----------|-2---2-----------|-2---2-----------|-2---2-----------|
Eb|-----------------|-----------------|-----------------|-----------------|
    1 + 2 + 3 + 4 +   1 + 2 + 3 + 4 +   1 + 2 + 3 + 4 +   1 + 2 + 3 + 4 +

Gb|-----------------|-----------------|-----------------|-----------------|
Db|-----------------|-----------------|-----------------|-----------------|
Ab|-2---2-----------|-2---2-----------|-2---2-----------|-2---2-----------|
Eb|-----------------|-----------------|-----------------|-----------------|
    1 + 2 + 3 + 4 +   1 + 2 + 3 + 4 +   1 + 2 + 3 + 4 +   1 + 2 + 3 + 4 +

Gb|-----------------|-----------------|-----------------|-----------------|
Db|-----------------|-----------------|-----------------|-----------------|
Ab|-----------------|-----------------|-0-0-0-0-0-0-0-0-|-0-0-0-0-0-0-0-0-|
Eb|-3-3-3-3-3-3-3-3-|-3-3-3-3-3-3-3-3-|-----------------|-----------------|
    1 + 2 + 3 + 4 +   1 + 2 + 3 + 4 +   1 + 2 + 3 + 4 +   1 + 2 + 3 + 4 +

Gb|-----------------|-----------------|-----------------|-----------------|
Db|-----------------|-----------------|-----------------|-----------------|
Ab|-2-2-2-2-2-2-2-2-|-2-2-2-2-2-2-2-2-|-2-2-2-2-2-2-2-2-|-2-2-2-2---------|
Eb|-----------------|-----------------|-----------------|---------0-0-2-2-|
    1 + 2 + 3 + 4 +   1 + 2 + 3 + 4 +   1 + 2 + 3 + 4 +   1 + 2 + 3 + 4 +



 Post-Bridge

Gb|-----------------|-----------------|-----------------|-----------------|
Db|-----------------|-----------------|-----------------|-----------------|
Ab|-----------------|-5-5-5-5-5-5-5-5-|-----------------|-2-2-2-2-2-2-2-2-|
Eb|-3-3-3-3-3-3-3-3-|-----------------|-5-5-5-5-5-5-5-5-|-----------------|
    1 + 2 + 3 + 4 +   1 + 2 + 3 + 4 +   1 + 2 + 3 + 4 +   1 + 2 + 3 + 4 +

Gb|-----------------|-----------------|-----------------|-----------------|
Db|-----------------|-----------------|-----------------|-----------------|
Ab|-----------------|-5-5-5-5-5-5-5-5-|-----------------|-2-2-2-2-0-0-0-0-|
Eb|-3-3-3-3-3-3-3-3-|-----------------|-5-5-5-5-5-5-5-5-|-----------------|
    1 + 2 + 3 + 4 +   1 + 2 + 3 + 4 +   1 + 2 + 3 + 4 +   1 + 2 + 3 + 4 +

Gb|-----------------|-----------------|-----------------|-----------------|
Db|-----------------|-----------------|-----------------|-----------------|
Ab|-----------------|-5-5-5-5-5-5-5-5-|-----------------|-2-2-2-2-2-2-2-2-|
Eb|-3-3-3-3-3-3-3-3-|-----------------|-5-5-5-5-5-5-5-5-|-----------------|
    1 + 2 + 3 + 4 +   1 + 2 + 3 + 4 +   1 + 2 + 3 + 4 +   1 + 2 + 3 + 4 +

Gb|-----------------|-----------------|-----------------|-----------------|
Db|-----------------|-----------------|-----------------|-----------------|
Ab|-----------------|-5-5-5-5-5-5-5-5-|-----------------|-2---2---0---0---|
Eb|-3-3-3-3-3-3-3-3-|-----------------|-5-5-5-5-5-5-5-5-|-----------------|
    1 + 2 + 3 + 4 +   1 + 2 + 3 + 4 +   1 + 2 + 3 + 4 +   1 + 2 + 3 + 4 +



 Chorus

Gb|-----------------|-----------------|-----------------|-----------------|
Db|-----------------|-----------------|-----------------|-----------------|
Ab|---------------5-|---5-5-5-5-5-5-5-|-0-0-0-0-0-0-0-2-|---2-2-2-2-2-2-2-|
Eb|-3-3-3-3-5-3-----|-----------------|-----------------|-----------------|
    1 + 2 + 3 + 4 +   1 + 2 + 3 + 4 +   1 + 2 + 3 + 4 +   1 + 2 + 3 + 4 +

Gb|-----------------|-----------------|-----------------|-----------------|
Db|-----------------|-----------------|-----------------|-----------------|
Ab|---------------5-|---5-5-5-5-5-5-5-|-0-0-0-0-0-0-0-2-|-----2---0---0---|
Eb|-3-3-3-3-5-3-----|-----------------|-----------------|-----------------|
    1 + 2 + 3 + 4 +   1 + 2 + 3 + 4 +   1 + 2 + 3 + 4 +   1 + 2 + 3 + 4 +

Gb|-----------------|-----------------|----------------------11-|-12-11-------------------|
Db|-----------------|-----------------|-------------------------|-------12//--------------|
Ab|---------------5-|---5-5-5-5-5-5-5-|-12-12-12-12-12-12-12----|-------------------------|
Eb|-3-3-3-3-5-3-----|-----------------|-------------------------|-------------------------|
    1 + 2 + 3 + 4 +   1 + 2 + 3 + 4 +   1  +  2  +  3  +  4  +    1  +  2  +  3  +  4  +

Gb|-----------------|-----------------|-----------------|-----------------|
Db|-----------------|/5-5-4-4-0-0-7-7-|-----------------|-----------------|
Ab|-----------------|-----------------|-0-0-0-0-0-0-0-0-|-0-0-0-0-------0-|
Eb|-3-3-3-3-3-3-3-3-|-----------------|-----------------|---------0-2-3---|
    1 + 2 + 3 + 4 +   1 + 2 + 3 + 4 +   1 + 2 + 3 + 4 +   1 + 2 + 3 + 4 +

Gb|-----------------|-----------------|-----------------|-----------------|
Db|-----------------|-----------------|-----------------|-----------------|
Ab|-2---------------|-----------------|-----------------|-----------------|
Eb|-----------------|-----------------|-----------------|-----------------|
    1 + 2 + 3 + 4 +   1 + 2 + 3 + 4 +   1 + 2 + 3 + 4 +   1 + 2 + 3 + 4 +


 Enjoy!


| .  staccato 
| /  slide up
| \  slide down
| h  hammer-on
| p  pull-off
| ~  vibrato
| +  harmonic
| x  Mute note
            
Submit corrections

comments powered by Disqus
↑ Back to top | Rise Against Bass for Architects. Lyrics for acoustic guitar and electric guitar. 1 Tablatures and chords are parodies/interpretations of the original songs. You may use it for private study, scholarship, research or language learning purposes only