» » »

Right Away Great Captain, Like Lions Do Tabs (ver.2)

Artists:  A B C D E F G H I J K L M N O P Q R S T U V W X Y Z # 

Like Lions Do Tabs (ver.2)

Right Away Great Captain Tabs
Rating:
0/5 (0 votes)
Like Lions Do lessons Tabs too difficult? Try these video lessons and learn fast
                

 e|-----------------------------------------------------------------------|
Bb|---------0--------------------------------------0----------------------|
 G|-------2---2----------------------------------2---2--------------------|
 D|---3-5---------3---------3-5/7/5-3-------3-5-------------3-5/7/5-3-----|
 A|-5-----------5-------3-5------------5-3-5-------------3-5----------5-3-|
 E|------------------6---------------------------------6------------------|

im too lazy to tune all the strings down personaly, if you want to, all the power to you 
just move everything except the Bb up a fret

Verses:

D  0577
C  0355
B  0132
G  353
A  575


D                   c              B

i've been throwing up over this ledge for the last 7 weeks

     G                      A         B
and you've been throwing history to hell

D                    C        B

i've been writing almost everyday that i've been gone

          G            A               B
do you still remember how my beard once felt

D                   C             B

i've been eating seaweed from a whale named emily

             G             A               B
she could swallow me, or help swallow my pride


Part for this line:


we wade under the tow like diamonds
we wade under the tow like diamonds


e|------------------------|
B|------------------------|
G|----------------------2-|
D|----------------------3-|
A|----0---0-1----0---0--1-|
E|--3---5------3---5------|


we wade under the tow like diamonds
we wade under the tow like diamonds

(SAME CHORDS)

i've been watching you look at a locket from your mother
or perhaps its from a girl you don't speak of

do you miss her when your sleeping
do you find it hard to eat when
everything reminds you of her stilly ghost

so to captains of my captain how can i become i captain
get the strength i need to pull this one around



        G             A               D
i will wait under the tow like lions

        G             A               B
i will wait under the tow like lions



like lions do.



GUITAR 1:

D   C   G   B

LITTLE LEAD PART

D|--5/7/5--3--------|
A|-------------5--3-|




oh my god, what am i doing here?

and i walk this ship of golden brown
you sit back covered up sounds
that don't come from my lips
you know they don't come from my lips


and you can try to break the silence
while you making love with violence
to my flesh and blood a traitor
oh my flesh and blood are traitors to you now

oh my god, what am i doing here?
what am i doing here?
            
Submit corrections

comments powered by Disqus
↑ Back to top | Right Away Great Captain Tabs for Like Lions Do. Lyrics for acoustic guitar and electric guitar. Tablatures and chords are parodies/interpretations of the original songs. You may use it for private study, scholarship, research or language learning purposes only