» » »

Once Like You Tabs (ver.1)

Artists:  A B C D E F G H I J K L M N O P Q R S T U V W X Y Z # 

Once Like You Tabs (ver.1)

Right Away Great Captain
Rating:
4/5 (1 vote)

Hard to play? Try these video lessons and learn fast.
                Verse

E|------------|
B|------------|
G|-0----------|
D|-0--7--5--5-|
A|-0--7--5--5-|
D|-0--7--5--5-|

And I felt the suck from a vampire teething

E|------------|
B|------------|
G|-0----------|
D|-0--7--2--5-|
A|-0--7--2--5-|
D|-0--7--2--5-|

Oh be it love not collapse

E|------------|
B|------------|
G|-0----------|
D|-0--7--5--5-|
A|-0--7--5--5-|
D|-0--7--5--5-|

And I am afraid if I sleep you'll never love me

E|------------|
B|------------|
G|-0----------|
D|-0--7--5--5-|
A|-0--7--5--5-|
D|-0--7--5--5-|

Now you don't have to answer that


Chorus

E|------------|
B|------------|
G|-------0----|
D|-5--5--0--7-|
A|-5--5--0--7-|
D|-5--5--0--7-|

What did you think you'd say to convince me to listen

E|------------|
B|------------|
G|-------0----|
D|-5--5--0--7-|
A|-5--5--0--7-|
D|-5--5--0--7-|

Well I am the one that talks to walls instead of men

E|------------|
B|------------|
G|-------0----|
D|-5--5--0--7-|
A|-5--5--0--7-|
D|-5--5--0--7-|

And after its done and buried I will haunt our children

E|------------|
B|------------|
G|------------|
D|------------|
A|-5--5--0--7-|
D|-5--5--0--7-|

Till they believe there's no God to stop my plan


E|------------------|
B|------------------|
G|------------------|
D|-9s-11s--9s--7--7-|
A|-7s--9s--7s--5--5-|
D|----------------5-|


E|------------------|
B|------------------|
G|----------------0-|
D|-9s-11s--9s--7--0-|
A|-7s--9s--7s--5--0-|
D|----------------0-|

E|------------------|
B|------------------|
G|------------------|
D|-9s-11s--9s--7--7-|
A|-7s--9s--7s--5--5-|
D|----------------5-|

E|------------------|
B|------------------|
G|----------------0-|
D|-6s--7s--6s--7--0-|
A|-4s--5s--4s--5--0-|
D|----------------0-|


Verse 2

E|------------|
B|------------|
G|-0----------|
D|-0--7--5--5-|
A|-0--7--5--5-|
D|-0--7--5--5-|

When I was young I had dreams of being a someone

E|------------|
B|------------|
G|-0----------|
D|-0--7--5--5-|
A|-0--7--5--5-|
D|-0--7--5--5-|

Tied up in fictions that's the sun

E|------------|
B|------------|
G|-0----------|
D|-0--7--2--5-|
A|-0--7--2--5-|
D|-0--7--2--5-|

Blinded my eyes and I was lost for most last summer

E|------------|
B|------------|
G|-------0----|
D|-5--5--0--5-|
A|-5--5--0--5-|
D|-5--5--0--5-|

It doesn't matter much I still feel the same

Chorus

E|------------|
B|------------|
G|-------0----|
D|-5--5--0--7-|
A|-5--5--0--7-|
D|-5--5--0--7-|

And I was a father once like you I was misguided

E|------------|
B|------------|
G|-------0----|
D|-5--5--0--7-|
A|-5--5--0--7-|
D|-5--5--0--7-|

Stabbing a fork into my palm to see your plan

E|------------|
B|------------|
G|-------0----|
D|-5--5--0--7-|
A|-5--5--0--7-|
D|-5--5--0--7-|

doesn't it make you sick to know that you are causing

E|------------|
B|------------|
G|------------|
D|------------|
A|-5--5--0--7-|
D|-5--5--0--7-|

30 or so mens death that don't deserve to die


E|------------------|
B|------------------|
G|------------------|
D|-9s-11s--9s--7--7-|
A|-7s--9s--7s--5--5-|
D|----------------5-|

so i

E|------------------|
B|------------------|
G|----------------0-|
D|-9s-11s--9s--7--0-|
A|-7s--9s--7s--5--0-|
D|----------------0-|

will lie

E|------------------|
B|------------------|
G|------------------|
D|-9s-11s--9s--7--7-|
A|-7s--9s--7s--5--5-|
D|----------------5-|


E|------------------|
B|------------------|
G|----------------0-|
D|-6s--7s--6s--7--0-|
A|-4s--5s--4s--5--0-|
D|----------------0-|


Im pretty sure it does that through the rest of the song. i didn't learn the solo but 
the song. it's pretty much correct. there might be a couple errors but its whatever. have 
with it.

-Benp
            
Hard to play? Try these video lessons and learn fast. | Correct




comments powered by Disqus
↑ Back to top | Tablatures and chords are parodies/interpretations of the original songs. You may use it for private study, scholarship, research or language learning purposes only