» » »

Oh No I Tried Tabs (ver.1)

Artists:  A B C D E F G H I J K L M N O P Q R S T U V W X Y Z # 

Oh No I Tried Tabs (ver.1)

Right Away Great Captain
Rating:
5/5 (4 votes)

Hard to play? Try these video lessons and learn fast.
                -------------------------------------------------------------------------------
                     Oh No, I Tried - Right Away, Great Captain!
-------------------------------------------------------------------------------

Tuning: Standard

Verse:

0:00 to 0:43

e|---------------------------------------------------------------------------|
B|---------------------------------------------------------------------------|
G|---------------------------------------------------------------------------|
D|---------------------------------------------------------------------------|
A|----0-0-0-0-0-0-0-0--------------------------------------------------------|
E|-0h2-2-0-0-5-5-5-5---------------------------------------------------------|

Chorus:

0:43 to 1:04

e|---------------------------------------------------------------------------|
B|---------------------------------------------------------------------------|
G|---------------------------------------------------------------------------|
D|---------------------------------------------------------------------------|
A|----0-0-0-0---0-0-0-0----0--0--0--0-0-0--0-0-------------------------------|
E|-0h7-7-7-7-0h9-9-9-9-0h10-10-10-10-9-9-10-9--------------------------------|


Verse:

1:04 to 1:35

Variation from 1:08 to 1:14

e|---------------------------------------------------------------------------|
B|---------------------------------------------------------------------------|
G|---------------------------------------------------------------------------|
D|---------------------------------------------------------------------------|
A|----0-0-0-0-0-0-0-0--------------------------------------------------------|
E|-0h2-2-0-0-5-5-5-7---------------------------------------------------------|


Chorus:

1:35 to 1:56

Palm-muted verse from 1:56 to 2:16


Variation from 2:01 to 2:07

e|---------------------------------------------------------------------------|
B|---------------------------------------------------------------------------|
G|---------------------------------------------------------------------------|
D|---------------------------------------------------------------------------|
A|----0-0-0-0-0-0-0-0--------------------------------------------------------|
E|-0h2-2-0-0-5-5-5-4---------------------------------------------------------|

Variation:

2:07 to 2:12

e|---------------------------------------------------------------------------|
B|---------------------------------------------------------------------------|
G|---------------------------------------------------------------------------|
D|---------------------------------------------------------------------------|
A|----0-0-0-0-0-0-0-0--------------------------------------------------------|
E|-0h2-2-0-0-5-5-5-7---------------------------------------------------------|

Chorus:

2:12 to 3:03


===============================================================================
            
Hard to play? Try these video lessons and learn fast. | Correct




comments powered by Disqus
↑ Back to top | Tablatures and chords are parodies/interpretations of the original songs. You may use it for private study, scholarship, research or language learning purposes only