>
 >
Down To Your Soul

Down To Your Soul Chords

Right Away Great Captain - Down To Your Soul chords, tabs, tablatures, lyrics

Guitar lessons | Add/correct | Request | Top 50 tabs Artists:  A B C D E F G H I J K L M N O P Q R S T U V W X Y Z 0-9

Down To Your Soul Chords – Right Away Great Captain

CD, Sheet music, Poster

Do you like Down To Your Soul? Share with your friends now
ChordsUkulele
-------------------------------------------------------------------------------
-------------------------------------------------------------------------------

Tuning:Standard

this is how i figure its played... no one else had anything. so if you figure out 
more, please put it up. 

     G           C           D          F#G         Em(3 is played sometimes)
e|---3---|   |---0---|   |---3---|   |---3---|   |---0(3)-|
B|---0---|   |---1---|   |---2---|   |---0---|   |---0----|
G|---0---|   |---0---|   |---3---|   |---0---|   |---0----|
D|---0---|   |---2---|   |---0---|   |---0---|   |---2----|
A|---2---|   |---3---|   |-------|   |---2---|   |---2----|
E|---3---|   |-------|   |-------|   |---2---|   |---0----|

during the G, 
theres this little walk down the b string.
                             then up the B string

e|----3--0--0--3----|      |--3-----0--3----|
B|----0--3--1--0----|      |--0--3-----0----|
G|----0--0--0--0----|      |--0--0--0--0----|
D|----0--0--0--0----|      |--0--0--0--0----|
A|----2--2--2--2----|      |--2--2--2--2----|
E|----3--3--3--3----|      |--3--3--3--3----|

During the D, 
there is a little riff on the second verse

e|----2~~~~~~~~~~~|   
B|----3~~~~~~~~~~~|   
G|----2--4-4-4p2p0|   
D|----0~~~~~~~~~~~|   
A|----------------|   
E|----------------|   

chorus consists of these little guys
    C  B  A  G    E    D
G|-------------------------------|
D|--2--0--2------------4~~~~-----|
A|--3--2--0--2~~~~2~~~~5~~~~-----|
E|-----------3~~~~0~~~~----------|

while the outro goes like this                     
    C  B  A  G    E    D     C    G    E    D    C    G    E    C
G|--------------------------|----------------------------------------|
D|--2--0--2------------4~~~~|2~~~~----------4~~~~2~~~~----------2~~~~|
A|--3--2--0--2~~~~2~~~~5~~~~|3~~~~2~~~~2~~~~5~~~~3~~~~2~~~~2~~~~3~~~~|
E|-----------3~~~~0~~~~-----|-----3~~~~0~~~~----------3~~~~0~~~~-----|

    D    G    E    D    C    D    E    C    D
G|-------------------------------------------------|
D|--4~~~~----------4~~~~2~~~~4~~~~-----2~~~~4~~~~~~|
A|--5~~~~2~~~~2~~~~5~~~~3~~~~5~~~~2~~~~3~~~~5~~~~~~|
E|-------3~~~~0~~~~---------------0~~~~------------|



[intro is the G with the walks...]

      C               D           G
I'm a traitor to your flesh in a stone
       C           D             G       (F#E)      Em
You're gonna read about the way, the way a man can go
      C                   D                G        F#E        Em    
I'm a good man, are you a good man? does a good man take you home?
       C                 D                      Em
With a rejoicing mouth I sing for you and pause.



chorus

      C    B   A     G              E          D
And I know you don't know what I'm capable of.
    C  B    A      G              E                D
But in time you'll taste all the salt in my lungs.

[intro style G]

    C            D(lil' riff)        G
And I see things I actually don't see.
  C              D(lil)             G     F#E       Em 
I knew it wasn't actually you a few feet from my reach.
  C                D(lil)       G       F#E       Em 
I looked into your eyes and I began to lose my teeth,
    C               D(lil)                Em 
And I felt you were dreaming the same thing.

chorus/bring/outro/catchy part

      C     B   A     G              E        D
And I know you don't know what I'm capable of
         C   B   A    G             E            D  
But if you give me just one more minute I'm sure
      C  B     A     G            G                D
That you would be shaking right down to your soul
          C   B   A   G             E               D    
And I'd hope that the fear of the lord brings me home.
       C        G        E        D(the real on...)  
I'm a man in a body of water so tall
        C           G          E                C  
Could swallow you whole and forget where he's going
    D           G           E         D
But I carved a map in the back of my arm
   C         D           E 
Don't worry I'm coming home
         C               D             
I said don't worry cause I'm coming home.

[intro G] 

fin.





Comments


Popular Right Away Great Captain tabs & chords
Blame 1 Chords
Fur Stop Caring Chords
I Was A Cage Chords
Memories From A Shore Chords
Night Marry You Chords
When I Met Death Chords
Love Come And Save Me Tabs
Sacred Heart Tabs
Do You Really Like Being Alone Ukulele
When I Met Death Ukulele


Song lyrics



↑ Back to top | Tablatures and chords are parodies/interpretations of the original songs. You may use it for private study, scholarship, research or language learning purposes only
© 2014 AZChords.com Contact us | Privacy policy | DMCA | Add/correct tabs | Request tabs | Top 50 tabs