» » »

Red Hot Chili Peppers, What It Is Bass tabs (ver.2)

Artists:  A B C D E F G H I J K L M N O P Q R S T U V W X Y Z # 

What It Is Bass tabs (ver.2)

Red Hot Chili Peppers Tabs
 Rating:
4/5 (4 votes)
What It Is lessons Tabs too difficult? Try these video lessons and learn fast
                What It Is 
Red Hot Chili Peppers

This is a tough song to play and I figured out as much as I could and as accurate as I could so here it is.

Will someone please rate my tab

/ means slide note
* means slap the note
! Means pop the note
~ means bend note up and down
^ means to slap the neck near the pickups in between notes
H means hammer note

*If you have the song you’ll understand what I mean ^*

        Play the slapping and the slapping the neck part all 4 times

This is the intro
G-----------------------------------------------|
D-----------------------------------------------|
A-----------------------------------------------|
E--0---0-0--00---0--0-0--00---3~4~3~4~3~4~3~4---|
     * ^  ** ^ **
                                                Played as a chord
G----------------------------------12/13----------|
D---------------------------------11/12-----------|
A-------------------------------------------------|
E--0---0-0--00----0--00--00-----------------------|

This is the verse
G----------------------------------------|
D--------------------------5^--0---------|
A------------------5h7^------------------|
E--0--0-0--0-0----------3----5-----------|
      *^ ** ^ **   *  *     


G--------------------------9----------------------------------|
D------------5!-0---------------------5!-0-------6------------|
A-------------------5/7----------------------5/7--------------|
E---0^---3/5---------------0^--3/5----------------------------|
       *     * *
            
Submit corrections

comments powered by Disqus
↑ Back to top | Red Hot Chili Peppers Bass for What It Is. Lyrics for acoustic guitar and electric guitar. Tablatures and chords are parodies/interpretations of the original songs. You may use it for private study, scholarship, research or language learning purposes only