» » »

Warped Tabs (ver.3)

Artists:  A B C D E F G H I J K L M N O P Q R S T U V W X Y Z # 

Warped Tabs (ver.3)

Red Hot Chili Peppers
Rating:
0/5 (0 votes)

Hard to play? Try these video lessons and learn fast.
                Warped by Red Hot Chili Peppers

This has got to be one of my fave Chili songs of all time
but it's nowhere on the net. So here ya go!

MAIN RIFF [verse]
E-------------------------------------
B-------------------------------------
G-------------------------------------
D-------------------------------------
A----5h-7---5h-7---5h-7---5h-7--0-----
E--0------0------0------0---------5b--
slight p.m. - - - - - - - - - -|

CHORUS
E----------------------
B---3-----3-----3------
G---0-----2-----0------[Repeat as needed]
D---0-----0-----0------
A----------------------
E----------------------
"... all  the   way..."

[This is used in second half of the 2nd chorus 
over the 3 chords used before]
E------------------|----------------------
B------------------|----------------------
G---12---11--9-----|---12--11----7---5----
D------------------|----------------------
A---10---9---7-----|---10---9----5---3----
E------------------|----------------------

E--------------------|--------------------------
B--------------------|--------------------------
G---12---11--14------|--17--16--14--12--11-9---- [2x]
D--------------------|-------------------------- [2nd time substitute
A---10---9---12------|--15--14--12--10--9--7----  last bar w/ the one
E--------------------|--------------------------  below]

E--------------------------
B--------------------------
G--17--17--17--17---------- [using delay]
D--------------------------
A--15--15--15--15----------
E--------------------------

SOLO
Guitar 1 [set delay at 352 milliseconds]
E-------------|-----------|-----------|----------------
B-------------|--20\sl----|--19-------|----------------
G---17\sl-----|-----------|--17-------|--------17-17b--
D-------------|-----------|-----------|--xxxx----------
A-------------|-----------|-----------|--xxxx----------
E-------------|-----------|-----------|----------------

E-----------------------
B-----------------------
G--17-17-17-17---------- [Now turn delay off]
D-----------------------
A--15-15-15-15----------
E-----------------------

E--------------------------------------------------
B--------------------------------------------------
G--17-19-19-19-19-19-19-19-19-21-21-21-21-21-21-21-
D--------------------------------------------------
A--15-17-17-17-17-17-17-17-17-19-19-19-19-19-19-19-
E--------------------------------------------------

E--------------------------------------------------
B--------------------------------------------------
G--17-17-17-19-19-19-16-16-16-17-17-17-14-14-14-14-
D--------------------------------------------------
A--15-15-15-17-17-17-14-14-14-15-15-15-12-12-12-12-
E--------------------------------------------------

E-------------------
B-------------------
G--12-12-12-12------[use delay for this bar]
D-------------------
A--10-10-10-10------
E-------------------

E---------------------------------------------------
B--20-20-20-20-20-20----20-19-19-19-19--------------
G--------------------19-----------------17-17-17-17-
D---------------------------------------------------
A---------------------------------------------------
E---------------------------------------------------

E---------------------------------------------------
B--19-19-19-19-19----------------------------------
G-----------------17-17-17-17-17-17-17-17-17-17-17-
D---------------------------------------------------
A---------------------------------------------------
E---------------------------------------------------

E---------------------------------------------------
B---------------------------------------------------
G--18-18-18-18-18-18--------------------------------
D--------------------19-19-19-19-19-19-19-19-19-19--
A---------------------------------------------------
E---------------------------------------------------

E---------------------------------------------
B---------------------------------------------
G--19-19-19-19-19-19-19-19-19-19-19-19-19-----
D---------------------------------------------
A---------------------------------------------
E---------------------------------------------

Guitar 2  [under solo]
[play entire section 4x]
E-----------------------------------
B-----------------------------------
G--------------------------------5b-[3x]
D---7-7-7-7-7-7-7-7-7-7-7-7-7-7-----
A---0-0-0-0-0-0-0-0-0-0-0-0-0-0-----
E-----------------------------------
p.m. - - - - - - - - - - - - - -|

E------------------------------------
B--------------------8-8-7-7-8-8-7-7-
G--------------------5-5-5-5-5-5-5-5-
D---7-7-7-7-7-7-7-7------------------
A---0-0-0-0-0-0-0-0------------------
E------------------------------------ [end of section]
p.m. - - - - - - - -|    

E----------------------
B---3-----3-----3------
G---2-----2-----1------
D---0-----0-----0------
A----------------------
E----------------------

E-------------------------------------|--------------------------------
B-------------------------------------|--------------------------------
G----------------------------------7--|---------------------------7--7-
D----------------------------------5--|---------------------------5--5-
A----5h-7---5h-7---5h-7---5h-7--0--0--|----5h-7---5h-7---5h-7--0--0--0-
E--0------0------0------0-------------|--0------0------0---------------
slight p.m. - - - - - - - - - - -|         - - - - - - - - - - - |

E---------------------------|--------------------
B---------------------------|--------------------
G--------------------7-7-7--|-----------7-7-7-7--
D--------------------5-5-5--|-----------5-5-5-5--
A----5h-7---5h-7--0--0-0-0--|---5h-7-0--0-0-0-0--
E--0------0-----------------|--0-----------------
slight p.m. - - - |             - - |

Section after last chorus 
E--------------------------
B--8--x-8--x-8-x-8--x-8-8-- <- Guitar 2
G--7--x-7--x-7-x-7--x-7-7-- <- 
D-------------------------- [Repeat until mellow outro]
A--------------------------
E--2--2-0--0-2-2-0--0-5-4-- <- Guitar 1

OUTRO [Tempo slows a lot]
[Clean tone]
E-----------4-------|-------4-----|----------4-----6-
B---7---6---4-------|--4----4-----|--7---6---4-----4-
G---6---6---4-------|--4----4-----|--6---6---4-----4-
D---6---6---6-------|--4----6-----|--6---6---6-----6-
A-------------------|-------------|------------------
E-------------------|-------------|------------------

E-------4-----|--7-------|--7--------|------------|------
B--4----4-----|--9-------|--9--------|--9---------|--9---
G--4----4-----|--9-------|--9--------|--9---------|--9---
D--4----6-----|--7-------|--7--------|--8---------|--8---
A-------------|--7-------|--7--------|--9---------|--9---
E-------------|----------|-----------|------------|------

E---0-------|--------------|-----------
B---0-------|--9-----------|-0---------
G---6-------|--9-----------|-7---------
D---5-------|--9-----------|-5---------
A---0-------|--7-----------|-7---------
E-----------|--0-----------|-----------

All the parts are here.
            
Hard to play? Try these video lessons and learn fast. | Correct




comments powered by Disqus
↑ Back to top | Tablatures and chords are parodies/interpretations of the original songs. You may use it for private study, scholarship, research or language learning purposes only