>
 >
Walkabout 2

Walkabout 2 Bass Tabs

Red Hot Chili Peppers - Walkabout 2 chords, tabs, tablatures, lyrics

Guitar lessons | Add/correct | Request | Top 50 tabs Artists:  A B C D E F G H I J K L M N O P Q R S T U V W X Y Z 0-9

Walkabout 2 Bass Tabs – Red Hot Chili Peppers

CD, Sheet music, Poster

Do you like Walkabout 2? Share with your friends now
Bass Tabs
Intro:
G-|----7---|-9--7---------------|--------|-9--7----------------|--------|
D-|--9---9-|-------5--7h8p7-5---|--------|-------5--7h8p7--5-0-|-(0)----|  
A-|--------|------------------0-|-(0)----|---------------------|--------|
E-|--------|--------------------|--------|---------------------|--------|

G-|----------------------|--------|----------------------|--------|
D-|----------------------|--------|----5--7--7h8p7-5-7/9-|-(9)----|
A-|-------5--5h6p5-3-5/7-|-(7)----|-7--------------------|--------|
E-|-5--8-----------------|--------|----------------------|--------|

G-|--9--7---------------|------------------|
D-|--------5--7h8p7-5-0-|-(0)--------------|
A-|---------------------|---------0-0-3----|
E-|---------------------|------------------|

Verse:
G-|-----0-7-8-9----------|---------------------|-----0-7-8-9----------|
D-|--------------7--5----|-----0-7-6-5---------|--------------7--5----|
A-|-0------------------7-|-5------------4--5-7-|-0------------------7-|
E-|----------------------|---------------------|----------------------|

G-|-------------------|-----0-7-8-9----------|-----------------------|
D-|-------------------|--------------7--5----|-----0-7-6-5-----------|
A-|-5-----------5-4-3-|-0------------------7-|-5------------4--5-5h7-|
E-|-----x-5-4-3-------|----------------------|-----------------------|

G-|-----0-7-8-9---12-----|---------------------|-----0-7-8-9----------|
D-|-------------------5--|-----0-7-6-5---------|--------------7--5----|
A-|-0--------------------|-5------------4--5-7-|-0------------------7-|
E-|----------------------|---------------------|----------------------|

G-|---------------------|-----0-7-8-9----------|-----------------------|
D-|-----0-7-6-5---------|--------------7--5----|-------------------5---|
A-|-5------------4--5-7-|-0------------------7-|-5----------0-4-5-7--7-|
E-|---------------------|----------------------|-----0-5-4-3-----------|
Play the verse parts with contant variations. Frequently used varitions showed below. 

G-|-----0-7-8-9---12-----|---------------------|-----0-7-8-9-----------|
D-|-------------------5--|-----0-7-6-5---------|--------------7--5h7---|
A-|-0--------------------|-5-------------------|-0-------------------7-|
E-|----------------------|--------------2--3-4-|-----------------------|

G-|-------------7-6-5--|-----0-7-8-9----------|-------------------|
D-|-----0-7-6-5--------|--------------7--5----|-----0-7-6-5---5-5-|
A-|-5------------------|-0------------------7-|-5-----------------|
E-|--------------------|----------------------|-------------------|

Chorus:
G-|-------------5-----|----------|------------5-----|-------------|
D-|-7--5--------------|----------|-7--5-------------|-------------|
A-|-------7--------6--|-5--------|-------7-------6--|-5----8--7---|
E-|-------------------|----------|------------------|-------------|

1st Interlude:
G-|----------------|-------------------|------------------|
D-|----------------|-------------------|------------------|
A-|----9-----7--7--|-------9\7----7--7-|-------9-----7--7-|
E-|-9-----7--------|-9--9-------7------|-9-9------7-------|

G-|------11--------------|--------11-------------|
D-|----------------------|-----------------------|
A-|----9----9----7--7----|------9----7----7--7-7-|
E-|-9---------7-------7/-|-9--9--------7---------|

Guitar solo:
G-|-----0-7-8-9----------|---------------------|-----0-7-8-9----------|
D-|--------------7--5----|-----0-7-6-5---------|--------------7--5----|
A-|-0------------------7-|-5------------4--5-7-|-0------------------7-|
E-|----------------------|---------------------|----------------------|

G-|----------------------|-----0-7-8-9----------|-----------------------|
D-|--------------------5-|---------------5--7---|-----0-7-6-5--7-6-5----|
A-|-5------------4--5----|-0------------------x-|-5-------------------7-|
E-|-----0-5-4-3----------|----------------------|-----------------------|

G-|-----0-7-8-9----------|--------------|
D-|--------------7--5----|--------------|
A-|-0------------------7-|-5------------|
E-|----------------------|------2--3--4-|

2nd Interlude: (With Auto-wah)      B(1/2)
G-|--------------|----------------|-----------12--14-|----17--19--17\-|
D-|--------------|-------------10-|-12----14---------|-17-------------|
A-|----4---5---6-|-7---10--12-----|------------------|----------------|
E-|-5------------|----------------|------------------|----------------|

Outro: 
G-|----------|-----------|----------|-----------|
D-|----------|------5----|----------|------5----|
A-|----------|-5---------|----------|-5---------|
E-|-5--------|-----------|-5--------|-----------|

G-|-----------------|-----------------|------------------|---------------|
D-|-----------------|-----5--5--------|------------------|-----5--5------|
A-|-----------0-7-6-|-5---------5-5-5-|------------0-7-6-|-5---------5-5-|
E-|-5--5-5--5-------|-----------------|-5--5-5--5--------|---------------|

G-|------------------|---------------|----------|----------------|
D-|------------------|------5-5--5---|----------|----------7-5---|
A-|------------0-7-6-|-5-------------|--------5-|-(0)------------|
E-|-5----5-5---------|---------------|-5--------|----------------|

       B(1/2)B B B B B B B                        B(1/2)B B B B B B
G-|--------------------------|-------------|---------------------------|
D-|--------------------------|------7-5----|---------------------------|
A-|--------------------------|-5-----------|-5-5--5--5--5-5-5-5-5-5--3-|
E-|-5--5--5--5-5-5-5-5-5-5---|-------------|---------------------------|

G-|------------|----------|
D-|------------|----------|
A-|-5----------|----------|
E-|-------3----|-5--------|





Comments


Popular Red Hot Chili Peppers tabs & chords
Bicycle Song Bass Tabs
Castles Made Of Sand 4 Bass Tabs
Dont Forget Me 3 Bass Tabs
Californication 2 Chords
Breaking The Girl 1 Tabs
Dr. Funkenstein Tabs
Funny Face Tabs
Havana Affair 3 Tabs
If You Have To Ask Tabs
Midnight 2 Tabs


Song lyrics



↑ Back to top | Tablatures and chords are parodies/interpretations of the original songs. You may use it for private study, scholarship, research or language learning purposes only
© 2014 AZChords.com Contact us | Privacy policy | DMCA | Add/correct tabs | Request tabs | Top 50 tabs