» » »

Universaly Speeking Tabs (ver.1)

Artists:  A B C D E F G H I J K L M N O P Q R S T U V W X Y Z # 

Universaly Speeking Tabs (ver.1)

Red Hot Chili Peppers
Rating:
0/5 (0 votes)

Hard to play? Try these video lessons and learn fast.
                Universally Speaking - this is the exact tab cos i checked it in the book in the shop after i got the rating of 1 star!!!!!!! so go tell the people who made the book that they're wrong!!!!
Verse:
------0------------------------------------------------
7-----8------------------------------------------------
7-----7-----------------------------------------------
7-----0------------------------------------------------
5-----7-------------------------------------------------Keep strummin those chords
------------------------------------------------------  for the verse

i think the chorus is the same too

Solo
starts when kiedus says let's go
e|-----------------------------------------------------------------------------------
B|-----------------------------------------------------------------------------------
G|-----------------------------------------------------------------------------------
D|16-14-12-14--12-11-12-111-12--14--12-11-12--14-14/7--7--7-7------------------------
A|-----------------------------------------------------------------------------------
E|-----------------------------------------------------------------------------------

e|-----------------------------------------------------------------------------------
B|-----------------------------------------------------------------------------------
G|-----------------------------------------------------------------------------------
D|16-14-12-14---12-11--12-11-12--14--12-11-12--14-14/19-19--19-19--16-14-12-14--12-11
A|-----------------------------------------------------------------------------------
E|-----------------------------------------------------------------------------------

e|-----------------------------------------------------------------------------------
B|-----------------------------------------------------------------------------------
G|-----------------------------------------------------------------------------------
D|12-11-12--14--12-11-12--11-11/7--7--7-7--7-5-4-5---0--0----7----7/12---------------A|----------------------------------------------------------------------------------
E|----------------------------------------------------------------------------------
            
Hard to play? Try these video lessons and learn fast. | Correct




comments powered by Disqus
↑ Back to top | Tablatures and chords are parodies/interpretations of the original songs. You may use it for private study, scholarship, research or language learning purposes only