» » »

Red Hot Chili Peppers, Universally Speaking Tabs (ver.3)

Artists:  A B C D E F G H I J K L M N O P Q R S T U V W X Y Z # 

Universally Speaking Tabs (ver.3)

Red Hot Chili Peppers Tabs
 Rating:
4/5 (4 votes)
Universally Speaking lessons Tabs too difficult? Try these video lessons and learn fast
1
                Tuning: Standard

Intro/Verse/pre-Chorus:

 D                             G

|-2--2--2-2-2-x-2-2-2-x-2-2-2-|-3--3--3-3-3-x-3-3-3-x-3-3-3-|
|-3--3--3-3-3-x-3-3-3-x-3-3-3-|-3--3--3-3-3-x-3-3-3-x-3-3-3-|	
|-2--2--2-2-2-x-2-2-2-x-2-2-2-|-0--0--0-0-0-x-0-0-0-x-0-0-0-|	
|-0--0--0-0-0-x-0-0-0-x-0-0-0-|-5--5--5-5-5-x-5-5-5-x-5-5-5-|	
|-----------------------------|-----------------------------|	
|-----------------------------|-----------------------------|	
	
Chorus:

A | A7 | G (x2)

A | G

Outro:

(Over these chords: A | G | G | D)

                               1st time  2nd time
|------------------------------|---------|----------------|	
|-7p5---5------------5--------5|---------|-/10--10-10-10--|	
|-----7---7-6--7-6-7----7-6-7--|---------|----------------|	
|------------------------------|-7--7-7-7|----------------|	
|------------------------------|---------|----------------|
|------------------------------|---------|----------------|	

3rd time same as 1st

End on:
      
|---------------------------------|	
|---------------------------------|	
|---------------------------------|	
|-7p5-----5~~~-----------7/12-----|	
|------7-------7--5--5------------|	
|---------------------------------|	

Overall a very simple song - considering I tabbed it I guess it has to be!
            
Submit corrections

comments powered by Disqus
↑ Back to top | Red Hot Chili Peppers Tabs for Universally Speaking. Lyrics for acoustic guitar and electric guitar. 1 Tablatures and chords are parodies/interpretations of the original songs. You may use it for private study, scholarship, research or language learning purposes only