» » »

Under The Bridge Tabs (ver.4)

Artists:  A B C D E F G H I J K L M N O P Q R S T U V W X Y Z # 

Under The Bridge Tabs (ver.4)

Red Hot Chili Peppers
Rating:
0/5 (0 votes)

Hard to play? Try these video lessons and learn fast.
                (Intro)

i'm sure this is the correct version of the intro as it sounds awesome.
I even put spaces for timing! :)

INTRO (NO CAPO IS NEEDED)

E ---------------------------|----------------------------|-------------
B ------------3--------------|----------------------------|------------2
G ------2--------2-----------|-------------3--------------|-------------
D ---4-----4---------4-2-----|-------4--------4--4-2------|------4------
A 5----------------------5-4-|----4-----4-------------5-2-|-4/5-----5---
E ---------------------------|-2--------------------------|-------------


         H P
E ----------------------|---------------------------|------------------
B -----3-5-3------------|---------------------------|------------------
G ------------2---------|-------------3-------------|------------2-----
D ---------------4/6--6-|-------4--------4--4-2-----|------4--------4--
A --5------------5/7--7-|----4-----4------------5-2-|-4/5-----5--------
E ----------------------|-2-------------------------|------------------


                                                              H P
E ----------------------------------------|---------------------------
B 3---------------------------------------|------------------3-5-3----
G ---2---------------------3--------------|------------2------------2-
D -------------------4--------4--4-2------|------4--------4-----------
A ------4-2-------4-----4-------------5-2-|-4/5-----5-----------------
E -----------5-4--------------------------|---------------------------



E --------|--------------------------------|
B --------|--------------------------------|
G --------|-------------3--------3---------|
D -4/6--6-|-------4--------4--------4------|
A -5/7--7-|----4-----4--------4--------4/7-|
E --------|-2------------------------------|




VERSE

E ---------------9--9------------------------------|
B ---------------9--9------------------------------|
G -13--8---------9--9---4---6-------13--8--9---6---|
D -14--9--10/11---------6---7-------14--9--11--7---|
A -14--9--10/11---------6---7-------14--9--11--7---|
E -12--7---8/9----------4---5-------12--7--9---5---|


Thats the general jist of the chords, i can't be bothered to tab the rest.
            
Hard to play? Try these video lessons and learn fast. | Correct




comments powered by Disqus
↑ Back to top | Tablatures and chords are parodies/interpretations of the original songs. You may use it for private study, scholarship, research or language learning purposes only