>
 >
Under The Bridge 2

Under The Bridge 2 Guitar Tabs

Red Hot Chili Peppers - Under The Bridge 2 chords, tabs, tablatures, lyrics

Guitar lessons | Add/correct | Request | Top 50 tabs Artists:  A B C D E F G H I J K L M N O P Q R S T U V W X Y Z 0-9

Under The Bridge 2 Guitar Tabs – Red Hot Chili Peppers

CD, Sheet music, Poster

Do you like Under The Bridge 2? Share with your friends now
ChordsTabsTabs v2Tabs v3
Under the bridge


e:-------------------------------------------------------------------| 
B:3-----------3--------------2--------------------------------------2| 
G:------2--------2-----------------------3---------------------------| 
D:---4-----4--------4-2------------4--------4--4-2------------4------| 
A:5---------------------5-4-----4-----4-------------5-2--4/5-----5---| 
E:---------------------------2---------------------------------------| 

         H P 
e:-------------------------------------------------------------------| 
B:-----3-5-3-------------2-------------------------------------------| 
G:------------2----------------------3-------------------------2-----| 
D:---------------4/6--6--------4--------4--4-2-----------4--------4--| 
A:--5------------5/7--7-----4-----4------------5-2--4/5-----5--------| 
E:-----------------------2-------------------------------------------| 
                                                              H P 
e:-------------------------------------------------------------------| 
B:3---------------------------------------------------------3-5-3----| 
G:---2---------------------3--------------------------2------------2-| 
D:-------------------4--------4--4-2------------4--------4-----------| 
A:------4-2-------4-----4-------------5-2--4/5-----5-----------------| 
E:-----------5-4-----------------------------------------------------| 

e:-----------------------------------------| 
B:-----------------------------------------| 
G:---------------------3--------3----------| 
D:-4/6--6--------4--------4--------4-------| 
A:-5/7--7-----4-----4--------4--------4----| 
E:---------2-------------------------------| 

e:---------------9--9------------------------------| 
B:---------------9--9------------------------------| 
G:-13--8---------9--9---4---6-------13--8--9---6---| 2x
D:-14--9--10/11---------6---7-------14--9--11--7---| 
A:-14--9--10/11---------6---7-------14--9--11--7---| 
E:-12--7---8/9----------4---5-------12--7--9---5---| 

e:----7--------| 
B:----9--------| 
G:----8--------| 1x
D:----9--------| 
A:----7--------| 
E:----7--------| 

e:----12-12-----7----------------------------------5-7-5-------------| 
B:----12-12-----7----------------------------------------5-----------| 
G:13--13-13--8--8-8-9-8---8-------9-----9------------------------13--| 3x
D:14---------9----------9---10/11-11-11-11---6--7----------------14--| 
A:14---------9-------------------------------6--7----------------14--| 
E:12---------7-------------------------------4--5----------------12--|

e:-----9-9---5--5------7--| 
B:-----9-9---5-----5---9--| 
G:-9---9-9---6---------8--| 1x
D:-11--------7---------9--| 
A:-11--------7---------7--| 
E:-9---------5---------7--| 

e:---9----------9---------------------------7-7-7-7-7----9----9--9---X--X--X--X--|
B:---10---------10--------------------------7-7-7-7-7----10---10-10--X--X--X--X--|
G:---11---------11------13------------------8-8-8-8-8----11---11-11--X--X--X--X--| 4x
D:---11---------11------14-------14---------9-9-9-9-9----11---11-11--X--X--X--X--|
A:----------------------14-------14-----------------------------------------------|
E:----------------------12-------12-----------------------------------------------|

e:----12-12-----7----------------------------------5-7-5-------------| 
B:----12-12-----7----------------------------------------5-----------| 
G:13--13-13--8--8-8-9-8---8-------9-----9------------------------13--| 6x
D:14---------9----------9---10/11-11-11-11---6--7----------------14--| 
A:14---------9-------------------------------6--7----------------14--| 
E:12---------7-------------------------------4--5----------------12--| 

e:----7--------| 
B:----9--------| 
G:----8--------| 1x
D:----9--------| 
A:----7--------| 
E:----7--------| 

e:---9----------9---------------------------7-7-7-7-7----9----9--9---X--X--X--X--|
B:---10---------10--------------------------7-7-7-7-7----10---10-10--X--X--X--X--|
G:---11---------11------13------------------8-8-8-8-8----11---11-11--X--X--X--X--| 4x
D:---11---------11------14-------14---------9-9-9-9-9----11---11-11--X--X--X--X--|
A:----------------------14-------14-----------------------------------------------|
E:----------------------12-------12-----------------------------------------------|

e:--0--------------0-0--0--0------------------0--------------0--0--0-| 
B:--5--5--8--5--5--3-3--3--1-------1----------5--5--8--5--5--3--3--3-| 
G:--6--5--5--5--5--4-4--4--2--0-2-----2-0-----6--5--5--5--5--4--4--4-| 3x
D:--7--5--5--5--5--5-5--5--3------------------7--5--5--5--5--5--5--5-| 
A:-------------------------------------------------------------------| 
E:-------------------------------------------------------------------| 

e:---1-1-1-1-1-1-1-1-1-1-1--0-0-0-0-0-0-0-0-0-0-0--3-3-3-3-3-3-3-3-3-3-3--|
B:---1-1-1-1-1-1-1-1-1-1-1--0-0-0-0-0-0-0-0-0-0-0--0-0-0-0-0-0-0-0-0-0-0--|
G:---2-2-2-2-2-2-2-2-2-2-2--2-2-2-2-2-2-2-2-2-2-2--0-0-0-0-0-0-0-0-0-0-0--| 1x
D:---3-3-3-3-3-3-3-3-3-3-3--3-3-3-3-3-3-3-3-3-3-3--0-0-0-0-0-0-0-0-0-0-0--|
A:-------------------------------------------------2-2-2-2-2-2-2-2-2-2-2--|
E:-------------------------------------------------3-3-3-3-3-3-3-3-3-3-3--|

e:-0--0-0----------------------0--0--0-0------------------------0--0--| 
B:-5--5-5---5--5--X--X--5--3--0--5--5-5--5--5--8--5-5--3--3----0--1--| 1x
G:-6--6-6---5--5--X--X--5--4--2--6--6-6--5--5--5--5-5--4----4--2--2--| 
D:-7--7-7---5--5--X--X--5--5--3--7--7-7--5--5--5--5-5--5-------3--3--| 
A:--------------------------------------------------------------------| 
E:--------------------------------------------------------------------| 

e:--------0--0-0-------------------------0--0-------0--0-0-----------| 
B:1-3-1---5--5-5--5--5--8--5-5--3--3-----0--1--1----5--5-5--5--5-----| 1x
G:--------6--6-6--5--5--5--5-5--4----4---2--2--2-2--6--6-6--5--5--5-7| 
D:--------7--7-7--5--5--5--5-5--5--------3--3----3--7--7-7--5--5-----| 
A:-------------------------------------------------------------------| 
E:-------------------------------------------------------------------|

e:---------------0--0---| 
B:-------3--3----0--1--2| 1x
G:-5-----4----4--2--2--2| 
D:---5---5-------3--3--2| 
A:----------------------| 
E:----------------------|





Comments


Popular Red Hot Chili Peppers tabs & chords
Breaking The Girl Bass Tabs
Buckle Down 3 Bass Tabs
Cant Stop 5 Bass Tabs
Brendans Death Song 4 Chords
Aeroplane 1 Tabs
Dont Foreget Me Tabs
Emit Remmus 1 Tabs
Organic Beat Tabs
Stone Cold Bush 2 Tabs
Tearjecker Tabs


Song lyrics



↑ Back to top | Tablatures and chords are parodies/interpretations of the original songs. You may use it for private study, scholarship, research or language learning purposes only
© 2014 AZChords.com Contact us | Privacy policy | DMCA | Add/correct tabs | Request tabs | Top 50 tabs