» » »

This Velvet Glove Tabs (ver.3)

Artists:  A B C D E F G H I J K L M N O P Q R S T U V W X Y Z # 

This Velvet Glove Tabs (ver.3)

Red Hot Chili Peppers
Rating:
0/5 (0 votes)

Hard to play? Try these video lessons and learn fast.
                Red Hot Chili Peppers - This Velvet Glove

Riff 1 (Intro):

G-----5--7----5--7--------------------------5--7----5--7------------------
D--7--------5---------3--2--3-2--2-2-----7--------5---------3--2--3-2--2-2

G--12---10--9------7---------14---12--9------7--7-7-7-7-7-7-7-7-----------
D--------------10------------------------10-------------------------------


Riff 2 (verse Riff):

Close to my skin I´m falling in...
e---------------------------------------------------------12-12-----
B---------------------------------------------------------12-12-----
G-14----14---14----14----14---14----14----14---14----14---------14--  Repeat


Play Riff 1 again


Riff 3:

It´s such a waste to be wasted...

e--------------12-12--------------12-12-
B--------------12-12--------------12-12-
G---14----14-----------14----14---------  Repeat


Riff 4 (Chorus):

For those who dont know the chords:

D: 5577755  C: 3355533  E: 7799977  A:  577655 

D                         C
Your solar eyes are like nothing I´ve ever seen
D                       C
Somebody close that can see right trough
D                       C
I´d take a fall and you know that i´d do anything
E              A
I will for you

Repeat Riff 2:

Sailin in the sun cuz there is one...

Riff 5:

A-C-D-F#


Repeat Chorus 2 Times.

Riff 6 (A little solo):

e------13--15-------------------13--15--------
B--15---------13---15-------15---------13---15

Repeat Riff 3

Close to my skin someone who´s been I´m falling in...

Thats All, Enjoy!
            
Hard to play? Try these video lessons and learn fast. | Correct




comments powered by Disqus
↑ Back to top | Tablatures and chords are parodies/interpretations of the original songs. You may use it for private study, scholarship, research or language learning purposes only