» » »

Red Hot Chili Peppers, They're Red Hot Tabs (ver.3)

Artists:  A B C D E F G H I J K L M N O P Q R S T U V W X Y Z # 

They're Red Hot Tabs (ver.3)

Red Hot Chili Peppers Tabs
 Rating:
4/5 (4 votes)
They're Red Hot lessons Tabs too difficult? Try these video lessons and learn fast
                Red Hot Chili Peppers
They're Red Hot
By Robert Johnson
Blood Sugar Sex Magik (1991)


Notation Legend
---------------
. - Staccato Phrasing (written above the notes)
x - Fret Hand Muting (percussive tone)
mf - Mezzo Forte (medium loud)

Timing
------
w - whole note
h - 1/2 note
h. - doted 1/2 note
q - 1/4 note
e - 1/8 note

Q - 1/4 break


Time Signature: C (w/ line in the middle)

Chorus
------
Very Fast  h = 152

Gtr. 1
mf

   C              B      A7                 D7             G7          C
        .         .                                   .
   q    q    q    q      q    e  q    e  e  e    q    q    q    q      q    e  e  e  e  q
e|------0--------------|------3--3----3--3--2--|-2----2---------1----|------0--0--0--0--0----|
B|------1---------4----|------2--2----2--2--1--|-1----1---------0----|------1--1--1--1--1----|
G|------0---------4----|------0--0----0--0--2--|-2----2----0----0----|-0----0--0--0--0--0----|
D|------2---------4----|------2--2----2--2-----|-0----0----0---------|-2----2--2--2--2--2----|
A|-3----3----2----2----|-0---------------------|-----------x---------|-3---------------------|
E|---------------------|-----------------------|-----------3---------|-----------------------|

   C              B      A7                 D7                      G7
        .         .
   q    q    q    q      q    e  q    e  e  e    q    q    e  e  e  e    q    q    e  q    e
e|------0--------------|------3--3----3--3--2--|-2----2----2--2--2--1--|-1----1----1--1----x--|
B|------1---------4----|------2--2----2--2--1--|-1----1----1--1--1--0--|-0----0----0--0----x--|
G|------0---------4----|------0--0----0--0--2--|-2----2----2--2--2--0--|-0----0----0--0----x--|
D|------2---------4----|------2--2----2--2-----|-0----0----0--0--0--0--|-0----0----0--0-------|
A|-3----3----2----2----|-0---------------------|-----------------------|-x--------------------|
E|---------------------|-----------------------|-----------------------|-3--------------------|

Verse
-----

   C                                        F/A                 Fm/Ab
                                     .                   .                   .
   w                  (h.)           q      h.           q      h.           q
e|-0----------------|-(0)------------0----|-5------------5----|-4------------4----|
B|-1----------------|-(1)------------1----|-6------------6----|-6------------6----|
G|-0----------------|-(0)------------0----|-5------------5----|-5------------5----|
D|-2----------------|-(2)------------2----|-7------------7----|-6------------6----|
A|-3----------------|-(3)------------3----|-------------------|-------------------|
E|------------------|---------------------|-------------------|-------------------|

Chorus
------

   C              B      A7                 D7             G7          C
        .         .
   q    q    q    q      q    e  q    e  e  e    q    q    q    q      q    e  e  e  e  q
e|------0--------------|------3--3----3--3--2--|-2----2---------1----|------0--0--0--0--0----|
B|------1---------4----|------2--2----2--2--1--|-1----1----0----0----|------1--1--1--1--1----|
G|------0---------4----|------0--0----0--0--2--|-2----2----0----0----|-0----0--0--0--0--0----|
D|------2---------4----|------2--2----2--2-----|-0----0----0---------|-2----2--2--2--2--2----|
A|-3----3----2----2----|-0---------------------|-----------x---------|-3---------------------|
E|---------------------|-----------------------|-----------3---------|-----------------------|

                        ________________________  ______________________
                       |1.,2.,3.                ||4.                    |
                       |                        ||                      |
   D7        G7          C                         C
                                                             .
   q    q    q    q      q    e  e  e  e  q        q    q    q    Q
e|-2----2---------1----|------0--0--0--0--0-----||-0----0----0---------||
B|-1----1----0----0----|------1--1--1--1--1----*||-1----1----1---------||
G|-2----2----0----0----|-0----0--0--0--0--0-----||-0----0----0---------||
D|-0----0----0---------|-2----------------------||-2----2----2---------||
A|-----------x---------|-3---------------------*||-3----3----3---------||
E|-----------3---------|------------------------||---------------------||
            
Submit corrections

comments powered by Disqus
↑ Back to top | Red Hot Chili Peppers Tabs for They're Red Hot. Lyrics for acoustic guitar and electric guitar. Tablatures and chords are parodies/interpretations of the original songs. You may use it for private study, scholarship, research or language learning purposes only