>
 >
The Organic Anti-Beat Box Band 1

The Organic Anti-Beat Box Band 1 Guitar Tabs

Red Hot Chili Peppers - The Organic Anti-Beat Box Band 1 chords, tabs, tablatures, lyrics

Guitar lessons | Add/correct | Request | Top 50 tabs Artists:  A B C D E F G H I J K L M N O P Q R S T U V W X Y Z 0-9

The Organic Anti-Beat Box Band 1 Guitar Tabs – Red Hot Chili Peppers

CD, Sheet music, Poster

Do you like The Organic Anti-Beat Box Band 1? Share with your friends now
TabsTabs v2



Intro:

 
-|-----------------|------------------------------------------|-
-|-----------------|------------------------------------------|-
-|-----------------|------------------------------------------|-
-|----2------------|------------------------------------------|-
-|----2------------|------------------------------------------|-
-|----0------------|-----0-0-0-0-0-0-0-0-0-0-............-----|-
        
Verse: This is more the Bass Riff arranged for guitar. In the song I 
think there is an E5 chord played, that sustains to the time were you 
should play the A5 and G5 chord.                                             
  
    E5                          D5    E5                    G5      A5  
-|---------------------------------|--------------------------------------|-
-|---------------------------------|--------------------------------------|-
-|----------9--9-------9--------7--|-----------9--9-----------------------|-
-|----------9--9-------9--------7--|-----------9--9---------5--5----7--7--|-
-|----------7--7-------7--------5--|-----------7--7---------5--5----7--7--|-
-|--0--0------------0-----0--------|---0--0------------0----3--3----5--5--|-
        
    E5                          D5    E5                    Bb5  A5   G5                                                                   
-|---------------------------------|-------------------------------------|-
-|---------------------------------|-------------------------------------|-
-|----------9--9-------9--------7--|-----------9--9----------------------|-
-|----------9--9-------9--------7--|-----------9--9---------8----7----5--|-
-|----------7--7-------7--------5--|-----------7--7---------8----7----5--|-
-|--0--0------------0-----0--------|---0--0------------0----6----5----3--|-

Bass Riff:

-|---------------------------------|---------------------------------------|-
-|----------2----2-------2---------|----------2----2-----------5------7----|-
-|------------------------------5--|---------------------------------------|-
-|--0----0----x-----0------0-------|--0----0----x-----0------3---3--5---5--|-

-|---------------------------------|-----------------------------------|-
-|----------2----2-------2---------|----------2----2-------------------|-
-|------------------------------5--|-----------------------------------|-
-|--0----0----x-----0------0-------|--0----0----x-----0----0--6--5--3--|-


Chorus:                                                                       

      B5                B5                   B5                B5      
-|--------------------------------------|--------------------------------------|-
-|--------------------------------------|--------------------------------------|-
-|--------------------------------------|--------------------------------------|-
-|--------------------------------------|--------------------------------------|-
-|--7/9--9-9-9-9-9-9--7/9--9-9-9-9-9-9--|--7/9--9-9-9-9-9-9--7/9--9-9-9-9-9-9--|-
-|--5/7--7-7-7-7-7-7--5/7--7-7-7-7-7-7--|--5/7--7-7-7-7-7-7--5/7--7-7-7-7-7-7--|-

      D5                D5                   E5                E5
-|--------------------------------------|-----------------------------------------|-
-|--------------------------------------|-----------------------------------------|-
-|--------------------------------------|-----------------------------------------|-
-|--5/7--7-7-7-7-7-7--5/7--7-7-7-7-7-7--|--7/9--9-9-9-9-9-9--7/9--9--7/9--9--7/9--|-
-|--3/5--5-5-5-5-5-5--3/5--5-5-5-5-5-5--|--5/7--7-7-7-7-7-7--5/7--7--5/7--7--5/7--|-
-|--------------------------------------|-----------------------------------------|-

                                                                              
Guitar Solo:

-|------------------------------------------------------------------------|-
-|------------------------------------------------------------------------|-
-|------------------------------------------------------------------------|-
-|--/14~~----14\--------------14--12~~------------12------14--12~~--------|-
-|-------------------/14--14---------------12^14------14------------------|-
-|------------------------------------------------------------------------|-
                 Weird noise
-|---------------------------------------------------------------------------------|-
-|-----------------x-x-x-x--15)-15)-15)-15)----------------------------------------|-
-|-----------------x-x-x-x--14--14--14--14----14-12-14-12--------------------------|-
-|--/14-14-12-14\--x-x-x-x--------------------------------14-12----------12-14~~~--|-
-|--------------------------------------------------------------12-13-14-----------|-
-|---------------------------------------------------------------------------------|-


Fills:                                                                        

   :25                              :37
-|--------------------------------|----------------------------------|-
-|--15----------------------------|----------------------------------|-
-|--14b(16)r(14)^12---------12~~--|----------------------------------|-
-|-------------------14~----------|--12---12-12--12/14--14-14--14~~--|-
-|--------------------------------|----------------------------------|-
-|--------------------------------|----------------------------------|-
                                                                              
   1:01                             1:16              1:21 
-|-------------------------------|-----------------|------------------------------|-
-|-------------------------------|--15-------------|--15--------------------------|-
-|-------------------------------|--14b(16)~~~~~~--|------(16)r(14)^12------12~~--|-
-|--<*14*>~~~~----14--14p12--12--|-----------------|--------------------14~-------|-
-|-------------------------------|-----------------|------------------------------|-
-|-------------------------------|-----------------|------------------------------|-

   2:12                                          2:26                                
-|--17-17-17-17-17-17\----17-17-17-17-17-17\--|------------------------------------|-
-|--------------------------------------------|------------------------------------|-
-|--------------------------------------------|------------------------------------|-
-|--------------------------------------------|--14-12--12-14~~----14-12--12-14~~--|-
-|--------------------------------------------|------------------------------------|-
-|--------------------------------------------|------------------------------------|-

   3:00                       3:04                              )  )  )  )
-|--------------------------|-----12--12--12--12--15-15b(17)--15-15-15-15--15-12----12--|-
-|--15~~~~~~~~--<*15*>-15\--|--/15--15--15--15-----------------------------------15-----|-
-|--------------------------|-----------------------------------------------------------|-
-|--------------------------|-----------------------------------------------------------|-
-|--------------------------|-----------------------------------------------------------|-
-|--------------------------|-----------------------------------------------------------|-

   3:08                                                          3:46
-|------------------------------------------------|-------------------------------|-
-|--15--12~~~--------)-----)-----)----15----)~~~--|-------------------------------|-
-|-----------------14----14----14---------14------|-------------------------------|-
-|------------------------------------------------|---------------5-5--5--7-7--7--|-
-|------------------------------------------------|---------------5-5--5--7-7--7--|-
-|------------------------------------------------|---------------3-3--3--5-5--5--|-

   3:48
-|---------------|--------------------------------|-------------------|-
-|---------------|--------------------------------|-------------------|-
-|---------------|--------------------------------|-------------------|-
-|--2------------|-----------------8----7----5----|--2----------------|-
-|--2------------|-----------------8----7----5----|--2----------------|-
-|--0------------|------------0----6----5----3----|--0----------------|-

   3:55
-|--------------------------------|-
-|--------------------------------|-
-|--------------------------------|-
-|--------------------------------|-
-|--------------------------------|-
-|--<5>--<5>--<5>--<5>--<5>--<5>--|-

7\ = slide         X = percussive sound   12^14 = hammer-on
~~ = vibrato       ) = bend               14^12 = pull off                
pm = palm muting   | = hold bend & play  <*14*> = Pinch Harmonic
)  = bend 1 step <5> = harmonic





Comments


Popular Red Hot Chili Peppers tabs & chords
By The Way 8 Bass Tabs
Cant Stop 6 Bass Tabs
Charlie 3 Bass Tabs
Factory Of Faith 3 Bass Tabs
Falling Into Grace 5 Bass Tabs
Gong Li Bass Tabs
Take It Slow Chords
Californication 13 Tabs
Magic Johnson Tabs
Search And Destroy 1 Tabs


Song lyrics



↑ Back to top | Tablatures and chords are parodies/interpretations of the original songs. You may use it for private study, scholarship, research or language learning purposes only
© 2014 AZChords.com Contact us | Privacy policy | DMCA | Add/correct tabs | Request tabs | Top 50 tabs