» » »

Red Hot Chili Peppers, The Greeting Song Tabs (ver.2)

Artists:  A B C D E F G H I J K L M N O P Q R S T U V W X Y Z # 

The Greeting Song Tabs (ver.2)

Red Hot Chili Peppers Tabs
 Rating:
4/5 (4 votes)
The Greeting Song lessons Tabs too difficult? Try these video lessons and learn fast
1
                The Greeting Song
Red Hot Chili Peppers
Blood Sugar Sex Magik

This is a phat song, and i cant find any other tabs for it so i decided 2 do it myself. 
Take it easy this is my first tab, so u might need play around with it a bit. 


Intro/verse
-----x-----------------------------x-----------------------------
-----x-----------------------------x-----------------------------
--2--x--2-2-2-5555--2x5x2x5-2-5-2--x--2-2-2-5555-2x5x2x2x2-22----
--2--x--2-2-2-5555--2x5x2x5-2-5-2--x--2-2-2-5555-2x5x2x2x2-22----
--0--x--0-0-0-3333--0x3x0x3-0-3-0--x--0-0-0-3333-0x3x0x0x0-00----
-----x-----------------------------x-----------------------------

The bit which is occassionally played over verse(?)listen out for timing.
------------
------------
------------
------------
------------
----3/5-----

Pre Chorus x3            
---------------------
---------------------
--4--x--7--9x10/11---
--4--x--7--9x10/11---
--2--x--5--7x-8/9----
--------------------- 

then
--------------------
--------------------
--2222222222222222--
--2222222222222222--
--0000000000000000--
--------------------

Rhythm Chorus
--2--2--2-2-2--2-----------------2--2--2-2-2-2--2-5--5--7-7-7--7--
--2--2--2-2-2--2-5--5--4-4-4--4--2--2--2-2-2-2--2-5--5--7-7-7--7--
--0--0--0-0-0--0-5--5--4-4-4--4--0--0--0-0-0-0--0-3--3--5-5-5--5--
-----------------3--3--2-2-2--2-----------------------------------

Lead Chorus
--5--5--5-5-5-5-5-8--8-10101010-10-----5--5-5-5-5-5-------------------
----------------------------------------------------8--8--7-7-7-7--7--
--2--2--2-2-2-2-2-5--5--7-7-7-7--7--2--2--2-2-2-2-2-------------------
----------------------------------------------------5--5--4-4-4-4--4--

Solo and surrounding sections are nearly finished, bare with me.

Chorus variation towards end of song
--4--4--4-4-4--4-----------------4--4--4-4-4-4--4-7--7--9-9-9--9-
--4--4--4-4-4--4-7--7--6-6-6--6--4--4--4-4-4-4--4-7--7--9-9-9--9-
--2--2--2-2-2--2-7--7--6-6-6--6--2--2--2-2-2-2--2-5--5--7-7-7--7-
-----------------5--5--4-4-4--4----------------------------------
            
Submit corrections

comments powered by Disqus
↑ Back to top | Red Hot Chili Peppers Tabs for The Greeting Song. Lyrics for acoustic guitar and electric guitar. 1 Tablatures and chords are parodies/interpretations of the original songs. You may use it for private study, scholarship, research or language learning purposes only