» » »

Red Hot Chili Peppers, Tear Tabs (ver.1)

Artists:  A B C D E F G H I J K L M N O P Q R S T U V W X Y Z # 

Tear Tabs (ver.1)

Red Hot Chili Peppers Tabs
 Rating:
4/5 (4 votes)
Tear lessons Tabs too difficult? Try these video lessons and learn fast
1
                This is the keyboard parts if they were played on guitar plus the guitar parts

-------|-------|-------|------|-----------------------------------------------
---5---|---3---|---5---|------|-----------------------------------------------
---5---|---4---|---5---|------|-----------------------------------------------
-------|-------|-------|------|-----------------------------------------------
-3-----|-------|-0-----|------|-----------------------------------------------
-------|-3-----|-------|------|-----------------------------------------------
 Part 1:  each measure is 4 counts and the last measure is silent.            

-----3----|----------|----------|---------------------------------------------
---5---6-5|---4-6-5-3|-----5----|-5-----5-----5-------------------------------
---5------|---3------|---5---7--|---7-----7-----7-----------------------------
----------|----------|---7-----7|-----7-----7-----7---------------------------
-3--------|----------|-0--------|---------------------------------------------
----------|-0--------|----------|---------------------------------------------
 Part 2                                                                       

-3---3--|-3--3--|-5--5--|-5--5------------------------------------------------
-5---5--|-3--3--|-5--5--|-5--5------------------------------------------------
-5---5--|-4--4--|-5--5--|-5--5------------------------------------------------
-5---5--|-5--5--|-7--7--|-7--7------------------------------------------------
-3---3--|-5--5--|-7--7--|-7--7------------------------------------------------
--------|-3--3--|-5--5--|-5--5------------------------------------------------
 Chorus: I'm not sure about this, i usually just play these chords            

-1--1--|-3--3--|-5--5--|-7--7-------------------------------------------------
-1--1--|-5--5--|-7--7--|-9--9-------------------------------------------------
-2--2--|-5--5--|-7--7--|-9--9-------------------------------------------------
-3--3--|-5--5--|-7--7--|-9--9-------------------------------------------------
-3--3--|-3--3--|-5--5--|-7--7-------------------------------------------------
-1--1--|-------|-------|------------------------------------------------------
                                                                              

---5--------------------------------------------------------------------------
---5--------------------------------------------------------------------------
---5--------------------------------------------------------------------------
---7--------------------------------------------------------------------------
-0----------------------------------------------------------------------------
 end of chorus                                                                

---------------|----------------|--------------------|------------------------
---5-6-8-6-5---|----------------|-----5---------5----|-----5---------5--------
-5-----------5-|---4-5-7-5-4---4|---5---7p5---5---7p5|---5---7p5---5---7p5----
---------------|-5-----------5--|-7---------7--------|-7---------7------------
---------------|----------------|--------------------|------------------------
---------------|----------------|--------------------|------------------------
 Guitar interlude                                                             

--------------|-----------------|--------------------|------------------------
---5-6-8-6-5--|---------6-5-----|-----5---------5----|-----5---------5--------
-5-----------5|---4-5-7-----7-5-|---5---7p5---5---7p5|---5---7p5---7-5--------
--------------|-5---------------|-7---------7--------|-7---------7-9----------
--------------|-----------------|--------------------|------------------------
--------------|-----------------|--------------------|------------------------
 While playing the chorus chords, you can figure out the strumming pattern.
            
Submit corrections

comments powered by Disqus
↑ Back to top | Red Hot Chili Peppers Tabs for Tear. Lyrics for acoustic guitar and electric guitar. 1 Tablatures and chords are parodies/interpretations of the original songs. You may use it for private study, scholarship, research or language learning purposes only