» » »

Taste The Pain Bass tabs (ver.2)

Artists:  A B C D E F G H I J K L M N O P Q R S T U V W X Y Z # 

Taste The Pain Bass tabs (ver.2)

Red Hot Chili Peppers
Rating:
0/5 (0 votes)

Hard to play? Try these video lessons and learn fast.
                (2)
Verse
G|-----------|--7---7----|--6---6---|--6---6---|
D|-----------|-----------|----------|----------|
A|--7-7-7-7--|---5---5---|---4---4--|---4---4--|
E|-----------|-----------|----------|----------|

G|-----------|-----------|--6---6---|--6---6---|
D|-----------|-----------|----------|----------|
A|--7-7-7-7--|-----------|---4---4--|---4---4--|
E|-----------|--3-3-3-3--|----------|----------|

G|-----------|--7---7----|--6---6---|--6---6---|
D|-----------|-----------|----------|----------|
A|--7-7-7-7--|---5---5---|---4---4--|---4---4--|
E|-----------|-----------|----------|----------|

G|-----------|-----------|-----------|-----------|
D|-----------|-----------|-----------|-----------|
A|--7-7-7-7--|-----------|-----------|-----------|
E|-----------|--3-3-3-3--|--5-5-5-5--|--5-5-5-5--|

Chorus
G|--9-5-5-4-4-2--|--6-6-7-7--|--9-5-5-4-4-2--|--6-6-7-7--|
D|---------------|-----------|---------------|-----------|
A|--7-3-3-2-2-0--|--4-4-5-5--|--7-3-3-2-2-0--|--4-4-5-5--|
E|---------------|-----------|---------------|-----------|

G|--9-5-5-4-4-2--|--6-6-7-7--|--9-5-5-4-4-2--|
D|---------------|-----------|---------------|
A|--7-3-3-2-2-0--|--4-4-5-5--|--7-3-3-2-2-0--|
E|---------------|-----------|---------------|

Interlude 
G|-------------------------5-7-7-7-7-7-7-7-7--|
D|--7-7-5-4-4-3--7-7-5-4-4--------------------|
A|--------------------------------------------|
E|--------------------------------------------|

Bass Solo
G|-----------|--7---7---|--6---6---|--6---6---|
D|-----------|----------|----------|----------|
A|--7-7-7-7--|---5---5--|---4---4--|---4---4--|
E|-----------|----------|----------|----------|

G|-----------|-----------|--6---6---|--6---6---|
D|-----------|-----------|----------|----------|
A|--7-7-7-7--|-----------|---4---4--|---4---4--|
E|-----------|--3-3-3-3--|----------|----------|

G|-----------|----------|-----------|-----------|
D|-----------|----------|-----------|-----------|
A|--7-7-7-7--|----------|--4-4-4-4--|--3-3-3-3--|
E|-----------|--3-3-3-3-|-----------|-----------|

G|-----------|----------|-----------|-----------|
D|-----------|----------|-----------|-----------|
A|--7-7-7-7--|----------|--4-4-4-4--|--4-4-4-4--|
E|-----------|--3-3-3-3-|-----------|-----------|

Riff after solo
G|--9-5-5-4-4-2--|--9-5-5-4-4-2--|---------|
D|---------------|---------------|--5-4-3--|
A|--7-3-3-2-2-0--|--7-3-3-2-2-0--|---------|
E|---------------|---------------|--3-2-1--|
            
Hard to play? Try these video lessons and learn fast. | Correct




comments powered by Disqus
↑ Back to top | Tablatures and chords are parodies/interpretations of the original songs. You may use it for private study, scholarship, research or language learning purposes only