» » »

Red Hot Chili Peppers, Subway To Venus Bass tabs (ver.1)

Artists:  A B C D E F G H I J K L M N O P Q R S T U V W X Y Z # 

Subway To Venus Bass tabs (ver.1)

Red Hot Chili Peppers Tabs
Rating:
0/5 (0 votes)
Subway To Venus lessons Tabs too difficult? Try these video lessons and learn fast
                INTRO
G|15-14p12---14p12-------------------------------x--9-----------------x--9-----------
D|---------14-----14-12\11----12\11-------------------6--7--8--9-----------6--7--7--8
A|-------------------------12------12--10---7--7-----------------x--7----------------
E|-----------------------------------------------------------------------------------

G|--7-----x--9------------------9------------7-----------
D|9---9--------6--7--8--9---------6--7--8--9---9--8--7---
A|------7-----------------x--7---------------------------
E|-------------------------------------------------------


VERSE

G|----x----------------------x--9-------------------7--------------------------------
D|---------6--7--8--9-------------6--7--0--7--8--9----9------------------------------
A|-7------------------x--7------------------------------------3----------------------
E|-0----------------------------------------------------5---5---5---x--0--5--5--0--4-

G|-----------------------------------------------------------------------------------
D|-----------------------------------------------------------------------------------
A|-------------------3------------------------------4--4---4--5--5--5--6--6--6-----7-
E|--5--5--0--4--5--5---5--x--0--5--5--1--4--5--5--5----------------------------0--0--

G|---------------------------------------------
D|---------------------------------------------
A|---------------------7------------------5----
E|-4--5--6--7--7--0--0---4--5--0--5--6--7----7-


CHORUS

G|--------------------------------------------------------------------
D|----9--7-------------------7----------9/11--9--7--------------------
A|---------9--7------7--8--9---9-------------------9--7--7--8---10--10  X2
E|-7------------------------------5--7------------------------8-------

G|-----10------------12--12--12--12-----
D|-----------10-------------------------
A|--8------------10---------------------
E|--------8-----------------------------
    T  P  T  P   T   P
            

comments powered by Disqus
↑ Back to top | Red Hot Chili Peppers Bass for Subway To Venus. Lyrics for acoustic guitar and electric guitar. Tablatures and chords are parodies/interpretations of the original songs. You may use it for private study, scholarship, research or language learning purposes only