» » »

Red Hot Chili Peppers, Skinny Sweaty Man Bass tabs (ver.2)

Artists:  A B C D E F G H I J K L M N O P Q R S T U V W X Y Z # 

Skinny Sweaty Man Bass tabs (ver.2)

Red Hot Chili Peppers Tabs
Rating:
0/5 (0 votes)
Skinny Sweaty Man  lessons Tabs too difficult? Try these video lessons and learn fast
                (2)
Standard Tuning: (E, A, D, G)

Main Riff/Verse: Make sure the riff is played with speed

--------0--0--------0--9----l
----------------------------l
--5h7--------5h7--0---------l
------0--0-----------0------l

Chorus:

--7-6-5-4---------------9---l
-----------5-6-7-8----------l
--------------------7-7-----l
----------------------------l

Bridge: Not essential, can be improv'd, this is a rough idea though

-----------------------------------------------------7------l
----------5----------7----------5------------5h7-7----------l
--7-5-7-7----7-5-7-7----7-5-7-7-----7-5-7-7-----------------l
------------------------------------------------------------l
            

comments powered by Disqus
↑ Back to top | Red Hot Chili Peppers Bass for Skinny Sweaty Man. Lyrics for acoustic guitar and electric guitar. Tablatures and chords are parodies/interpretations of the original songs. You may use it for private study, scholarship, research or language learning purposes only