» » »

Scar Tissue Tabs (ver.3)

Artists:  A B C D E F G H I J K L M N O P Q R S T U V W X Y Z # 

Scar Tissue Tabs (ver.3)

Red Hot Chili Peppers
Rating:
0/5 (0 votes)

Tabs too difficult? Try these video lessons and learn fast.
                this is just the main riff to the song but feel free 2 send any suggestions
/=slide 
L=lift off


e|------5--5-5--5-----------------
D|---------------5-5/6-6-6--65----
B|--------------------------------
G|--3-----3-3---------------------
A|-----------------3/5--5-5-------
E|--------------------------------

e|------5--5-5--5-8------------------------------------------------------------------
D|-----------------5-5/6--8L68L6-6/5-------------------------------------------------
B|-----------------------------------------------------------------------------------
G|--3-----3-3------------------------------------------------------------------------
A--------------------3/5-------------------------------------------------------------
E|-----------------------------------------------------------------------------------
thats the main riff i dont know any of the other stuff
            
Tabs too difficult? Try these video lessons and learn fast.




comments powered by Disqus
↑ Back to top | Tablatures and chords are parodies/interpretations of the original songs. You may use it for private study, scholarship, research or language learning purposes only