>
 >
Save The Population

Save The Population Guitar Tabs

Red Hot Chili Peppers - Save The Population chords, tabs, tablatures, lyrics

Guitar lessons | Add/correct | Request | Top 50 tabs Artists:  A B C D E F G H I J K L M N O P Q R S T U V W X Y Z 0-9

Save The Population Guitar Tabs – Red Hot Chili Peppers

CD, Sheet music, Poster

Do you like Save The Population? Share with your friends now
TabsTabs v2Tabs v3
Intro:

e--------------------|--10---10----|-----------------|--8---8---|-----------------|
b--8---11------------|-------------|-8---11----------|----------|-8---11----------|
g----------10---8-7--|-----7----7--|--------10---8-7-|----7--7--|--------10---8-7-|
d--------------------|-------------|-----------------|----------|-----------------|
a--------------------|-------------|-----------------|----------|-----------------|
E--------------------|-------------|-----------------|----------|-----------------|

e------------------|-----------|
b--10--10>11>10-8--|-6>8>6-----|
g------------------|---------7-|
d------------------|-----------|
a------------------|-----------|
E------------------|-----------|


Verse 1:

e----------------|13-13-13-13-13-13-13-13|----------------|----11---11------------|
b-8---11---------|-----------------------|-8---11---------|-----------------------|
g--------10--8-7-|-----------------------|--------10--8-7-|-----------------------|
d----------------|-----------------------|----------------|--12---12---12---------|
a----------------|-----------------------|----------------|-----------------------|
E----------------|-----------------------|----------------|-----------------------|

e---------------|-----10-10-10-10|----8-8-8-8|----6-6-6-6|----5-5-5-5|----4-4-4-4|
b-8--11---------|----------------|-----------|-----------|-----------|-----------|
g------10--8-7--|7-7-------------|7-7--------|7-7--------|7-7--------|7-7--------|
d---------------|----------------|-----------|-----------|-----------|-----------|
a---------------|----------------|-----------|-----------|-----------|-----------|
E---------------|----------------|-----------|-----------|-----------|-----------|

 
Verse 2:

e------------|------------|-----------|------------|----------|-2----2>3-3--------|
b------------|-1-1-1-1-1-1|-----------|-1>3-3-3-3-3|----------|------------3------|
g--0---3-----|------------|-0---3-----|------------|-0--3-----|-------------------|
d--------1-0-|------------|-------1-0-|------------|------1-0-|-------------------|
a------------|------------|-----------|------------|----------|-------------------|
E------------|------------|-----------|------------|----------|-------------------|

e--------------2------------------------------------------------------------------I
b-3-1----------4------------------------------------------------------------------I
g----3-2-0-----2------------------------------------------------------------------I
d--------------4------------------------------------------------------------------I
a--------------3------------------------------------------------------------------I
E---------------------------------------------------------------------------------I

Thats All I Have Time For For Now!
I will Finish It Later.





Comments


Popular Red Hot Chili Peppers tabs & chords
Blues For Meister 4 Bass Tabs
Nobody Weird Like Me 2 Bass Tabs
Backwoods 1 Tabs
Battle Ship Tabs
Californication, Exclusive Tabs
Dosed By Mick Maggot Tabs
Especially In Michigan 3 Tabs
Hanalei Tabs
One Hot Minute Tabs
Road Trippin' 1 Tabs


Song lyrics



↑ Back to top | Tablatures and chords are parodies/interpretations of the original songs. You may use it for private study, scholarship, research or language learning purposes only
© 2014 AZChords.com Contact us | Privacy policy | DMCA | Add/correct tabs | Request tabs | Top 50 tabs