» » »

Right On Time Bass tabs (ver.2)

Artists:  A B C D E F G H I J K L M N O P Q R S T U V W X Y Z # 

Right On Time Bass tabs (ver.2)

Red Hot Chili Peppers
Rating:
0/5 (0 votes)

Hard to play? Try these video lessons and learn fast.
                (2)
Verse
 
G:-----------------------------------
D:-----------------------------------
A:------9---7------------------------  x8
E:--0---------9----9---9---9---9---9-


1st Chorus
 
G:---------------------------9-9-----9-9---------------------11-11----11-11--
D:------11-11-----11-11-----------------------9-9----9-9---------------------
A:-----------------------7-7-----7-7---------------------9-9-------9-9-------  x4
E:--9-9-------9-9------------------------7-7------7-7------------------------



Verse
 
G:-----------------------------------
D:-----------------------------------
A:------9---7------------------------  x8
E:--0---------9----9---9---9---9---9-



2nd Chorus
 
G:---------------------------9-9-----9-9---------------------11-11----11-11--
D:------11-11-----11-11-----------------------9-9----9-9---------------------
A:-----------------------7-7-----7-7---------------------9-9-------9-9-------  x4
E:--9-9-------9-9------------------------7-7------7-7------------------------

Than this...

G:------11-11------11-11-------14-14-------14-14------9-9-----9-9-------16-16--
D:-----------------------------------------------------------------------------
A:--9-9--------9-9-------12-12-------12-12--------7-7-----7-7-----14-14--------
E:-----------------------------------------------------------------------------



Verse
 
G:-----------------------------------
D:-----------------------------------
A:------9---7------------------------  x8
E:--0---------9----9---9---9---9---9-


Chorus 

G:---------------------------9-9-----9-9---------------------11-11----11-11--
D:------11-11-----11-11-----------------------9-9----9-9---------------------
A:-----------------------7-7-----7-7---------------------9-9-------9-9-------  x4
E:--9-9-------9-9------------------------7-7------7-7------------------------


Outro
G------------------
D------------------
A--------9-7-------
E--0-----------9\--


Please rate this Tab

Thanks!
            
Hard to play? Try these video lessons and learn fast. | Correct




comments powered by Disqus
↑ Back to top | Tablatures and chords are parodies/interpretations of the original songs. You may use it for private study, scholarship, research or language learning purposes only