» » »

Red Hot Chili Peppers, Porcelain Tabs (ver.2)

Artists:  A B C D E F G H I J K L M N O P Q R S T U V W X Y Z # 

Porcelain Tabs (ver.2)

Red Hot Chili Peppers Tabs
 Rating:
4/5 (4 votes)
Porcelain lessons Tabs too difficult? Try these video lessons and learn fast
1
                Porcelain - Red Hot Chili Peppers

Taken from the Californication Tab Book so it should be 100%.

Standard Tuning
song played with tremolo effect

e ------------------------------------------------------------------
b --2----------------0----2-----------------------------------------
g ------------------------------------------------------------------
d ------------------------------------------------------------------
a ------------------------------------------------------------------
e ------------------------------------------------------------------
    Por     c'lain           Are you wasting away in your skin?
e ------------------------------------------------------------------
b -2----------------------------------------------------------------
g ---------------------------------------------2--------------------
d ------------------------------------------4-----------------------
a ------------------------------------------------------------------
e ------------------------------------------------------------------
      Are you missing the love of your kin?    Drifting and floating
e -------------------------2-2-2-4-5------0-------------------------
b ------------------------------------------2-/--0---2--------------
g ------------------------------------------------------------------
d ------------------------------------------------------------------
a ------------------------------------------------------------------
e ------------------------------------------------------------------
    and fading away    Por               c'lain       Do you smell
e ------------------------------2----2-----2---4---5---7-----5------
b ------------------------------------------------------------------
g ------------------------------------------------------------------
d ------------------------------------------------------------------
a ------------------------------------------------------------------
e ------------------------------------------------------------------
   like a girl when you smile?  Can  you  bear not to share with 
e --4----2-----4--5----0--------------------------------------------
b ------------------------2-----------------------------------------
g ------------------------------------------------------------------
d ------------------------------------------------------------------
a ------------------------------------------------------------------
e ------------------------------------------------------------------
    your  child?       Drifting and floating and fading away
e ---------------------------------------------------0--------------
b --3----2----2-------3-----2-----3----2-----2-------0--------------
g --4----2----2-------4-----2-----4----2-----2-------1--------------
d --4----4----2-------4-----2-----4----4-----2-------2--------------
a --2----4----0-------2-----0-----2----4-----0-------2--------------
e -------2-----------------------------2-------------0--------------
    Lit  tle lune     All  day    Lit  tle  lune
e -0-0-0-0-0-0-0-0-0-0---0--0--0--0---------------------------------
b -----0-----0------------------------2--------------0--2-----------
g ------------------------------------------------------------------
d ------------------------------------------------------------------
a ------------------------------------------------------------------
e ------------------------------------------------------------------
                                       Por  c'lain       Do you
e ------------------------------------------------------------------
b --------------------------------2---------------------------------
g ------------------------------------------------------------------
d ------------------------------------------------------------------
a ------------------------------------------------------------------
e ------------------------------------------------------------------
    carry the moon in your womb?   Someone said that you're fading 
e ------------------------------------------------------2-2-2-4-5---
b ------------------------------------------------------------------
g ------------------------------------------------------------------
d --------------------------------------4---------------------------
a ------------------------------------------------------------------
e ------------------------------------------------------------------
   too soon   Drifting and floating and fading away  Por         
e -----0---------------------------------------------2---2---2----4-
b -------2--0---2---------------------------------------------------
g ------------------------------------------------------------------
d ------------------------------------------------------------------
a ------------------------------------------------------------------
e ------------------------------------------------------------------
   c'lain        Are you wasting away in your skin?  Are you missing
e -5----7---5---4---2-----4-5---0-----------------------------------
b --------------------------------2-----------------------------7-/-
g ------------------------------------------------------------------
d ------------------------------------------------------------------
a ------------------------------------------------------------------
e ------------------------------------------------------------------
   the love of your kin?        Nodding and melting and fading away
e ---------------0----------0------0-----0-----------------------0--
b -3---2-----2-----2----3-----2----2-------2-----3---2-----2-----0--
g -4---2-----2-------2--4-------2--2---------2---4---2-----2-----1--
d -4---4-----2----------4----------2-------------4---4-----2-----2--
a -2---4-----0----------2----------0-------------2---4-----0-----2--
e -----2---------------------------------------------2-----------0--
   Lit tle  lune        All        day           Lit tle  lune
e -0--0--0--0--0-0-0--0-0--0--0--0--0------------------------2------
b --------------------------------------3---2-----2------3-----3----
g --------------------------------------4---2-----2------4-------4--
d --------------------------------------4---4-----2------4----------
a --------------------------------------2---4-----0------2----------
e ------------------------------------------2-----------------------
                                        Lit tle  lune    All
e ------5------------------------0--0-0-0-0-0-0-0-0-0-0-0-0---------
b --2-----5------3---2-----2-----0---------------------------2------
g --2-------2----4---2-----2-----1----------------------------------
d --2------------4---4-----2-----2----------------------------------
a --0------------2---4-----0-----2----------------------------------
e -------------------2-----------0----------------------------------
   day           Lit tle  lune


That's it.  
            
Submit corrections

comments powered by Disqus
↑ Back to top | Red Hot Chili Peppers Tabs for Porcelain. Lyrics for acoustic guitar and electric guitar. 1 Tablatures and chords are parodies/interpretations of the original songs. You may use it for private study, scholarship, research or language learning purposes only