» » »

Red Hot Chili Peppers, One Hot Minute Tabs (ver.2)

Artists:  A B C D E F G H I J K L M N O P Q R S T U V W X Y Z # 

One Hot Minute Tabs (ver.2)

Red Hot Chili Peppers Tabs
 Rating:
4/5 (4 votes)
One Hot Minute lessons Tabs too difficult? Try these video lessons and learn fast
                One Hot Minute

Riff 1:
---------------------------------------
---------------------------------------
-------6/7/6-6/7/6-------6/7/6-6/7/6---
---2-----------------2-----------------
---2-----------------2-----------------
---0-----------------0-----------------

Riff 2:
1:
-------------------------------
-------------------------------
-------------------5-5-5-7/9---
---5--5--5--5--2---------------
---3--3--3--3--0---------------
-------------------------------

2:
-------------------------------
-------------------------------
-------------------5-5-5-5-5---
---5--5--5--5--2---------------
---3--3--3--3--0---------------
-------------------------------

3:
-----------------------------------------------
-----------------------------------------------
-------------------9-8-7-6-5-------------------
---5--5--5--5--2---------------5--5--5--5--2---
---3--3--3--3--0---------------3--3--3--3--0---
-----------------------------------------------

Riff 3:
------------------------------
------------------------------
------------------------------
---11-11-11--9--9---4--4--4---
---9--9--9---7--7---2--2--2---
------------------------------

Riff 4:
---------------------------------------
---------------------------------------
---------------------------------------
---8----8----8----8----8/10-10-10-10---
-----7----7----7----7------------------
---------------------------------------

Riff 5:
---------------------
---------------------
---------------------
---2---7--12--7--9---
---2---5--10--5--7---
---0-----------------

Riff 6:
---8-8-8-8-8-8-----------------------------------------------
-------------------------------------------------------------
-------------------------------------------------------------
-----------------2---4---------------------------------------
-------------------------3----4---11---12-11-9--11---7---4---
-------------------------------------------------------------

--------------------------------------------
--------------------------------------------
--------------------------------------------
--------------------------------------------
---b-b-b-b----9-7---7-3--4---b-b-b--3---4---
--------------------------------------------
            
Submit corrections

comments powered by Disqus
↑ Back to top | Red Hot Chili Peppers Tabs for One Hot Minute. Lyrics for acoustic guitar and electric guitar. Tablatures and chords are parodies/interpretations of the original songs. You may use it for private study, scholarship, research or language learning purposes only