» » »

Red Hot Chili Peppers, No Chump Love Sucker Bass tabs (ver.2)

Artists:  A B C D E F G H I J K L M N O P Q R S T U V W X Y Z # 

No Chump Love Sucker Bass tabs (ver.2)

Red Hot Chili Peppers Tabs
 Rating:
4/5 (4 votes)
No Chump Love Sucker  lessons Tabs too difficult? Try these video lessons and learn fast
                (2)
Verse
G|--------8p9-|-------8p9-|--------8p9-|---11p12--------|
D|------------|-----------|------------|----------11p12-|
A|--7-7-7-7---|--7-7-7-7--|--7-7-7-7---|--10------------|     x8
E|------------|-----------|------------|---------10-----|

Interlude after two first verses
G|-------------|-------------|------------|------------------|
D|--7-7-7-5-7--|--7-7-7-5-7--|--5-5-5-4-5-|--10-10-10-10-10--|
A|-------------|-------------|------------|------------------|
E|-------------|-------------|------------|------------------|

Interlude after third verse
G|--12-12-12-11-12--|--11-11-11-10-11--|--10-10-10-9-10--|
D|------------------|------------------|-----------------|
A|------------------|------------------|-----------------|
E|------------------|------------------|-----------------|

G|--9-9-9-8-9-9--|
D|---------------|
A|---------------|       x2
E|---------------|

G|---------|------------------|
D|--12-11--|--10-10-10-10-10--|
A|---------|------------------|
E|---------|------------------|

Interlude after fourth verse
G|------------|-----------------|------------|-----------------|
D|--7-10-5-7--|--7-10-5-10-5-7--|--7-10-5-7--|--7-10-5-10-5-7--|
A|------------|-----------------|------------|-----------------|
E|------------|-----------------|------------|-----------------|

Outro
G|------------------------|
D|------------------------|
A|--10---10---11---12--7--|
E|----10---10---11--------|
            
Submit corrections

comments powered by Disqus
↑ Back to top | Red Hot Chili Peppers Bass for No Chump Love Sucker. Lyrics for acoustic guitar and electric guitar. Tablatures and chords are parodies/interpretations of the original songs. You may use it for private study, scholarship, research or language learning purposes only