» » »

Red Hot Chili Peppers, My Friend Tabs (ver.4)

Artists:  A B C D E F G H I J K L M N O P Q R S T U V W X Y Z # 

My Friend Tabs (ver.4)

Red Hot Chili Peppers Tabs
Rating:
0/5 (0 votes)
My Friend lessons Tabs too difficult? Try these video lessons and learn fast
                (Full)
Standard Tuning EADGBe

Most of the tabs out there leave out the fill-ins, which he uses every verse and chorus and bridge on this song!
He changes the fill-ins from verse to verse but they are almost the same. This isn't 100% correct but it sounds
about the same.

"My friends are so distressed"                         Hard strum here, without the fill-ins on the intro. You'll hear it.
-----0-----------0------3-----------------3----------|---3-3--|
-----3-----------3------3-----------------3----------|---3-3--|
---2-----------2-------------------0h3p0-------------|---0-0--|
-0---------0h3---------0---------0h2-----------------|---0-2--|
---------------------2--------2h3--------------------|---2-3--|
-----------------------------------------------------|--------|
The hard strum could be a power chord as well.

This is the basic chords for the verses, he does this a couple times each verse, with different fill-ins!
Unless of course you want to go the easy route and just strum.
-0------0------3-------3-----|
-3------3------3-------3-----|
-2------2------0-------0-----|
-0------3------0-------2-----|
---------------2-------3-----|
-----------------------------|

Chorus 
"I love all of you" Its a soft strum with a arpeggio a to E after the 2nd and 4th chord. Again with fill-ins.
-0---------0---------0-------2-----------|
-1---------0---------1-------3-----------|
-0---------2---------0-------2-------6---|
-2---------2---------2-------0-------7---|
-3---------0---------3-------0-------0---|
-----------------------------------------|


Solo- I know this is correct.
--------------------------------------------------|
--------------------------------------------------|
---9s11--11-11-11-9-7-9-7s5s7-4-4-4-4s5-5-5-5s7-7-|
---x-x---x---x--x-x-x-x-x-x-x-x-x-x-x-x-x-x-x-x-x-|
---7s9---9---9-9--7-5-7-5-3s5-2-2-2-2s3-3-3-3s5-5-|
--------------------------------------------------|


--------------------------------------------13b(15)s14b(16)----|
--9s11-11-11-11-11-11-11-11s14-14-14s16-12---------------------|
--x--x--x--x--x--x--x--x--x--x--x--x--x--x---------------------|
--7s-9--9--9--9--9--9--9--9s12-12-12s14-10---------------------|


--------------------------------------------------|
--------------------------------------------------|
---9s11--11-11-11-9-7-9-7s5s7-4-4-4-4s5-5-5-5s7-7-|
---x-x---x---x--x-x-x-x-x-x-x-x-x-x-x-x-x-x-x-x-x-|
---7s9---9---9-9--7-5-7-5-3-5-2-2-2-2s3-3-3-3-5-5-|
--------------------------------------------------|


-------------------------------------------------------|
-------------------------------------------------------|
--9s11-11-11-11-11-11-11-11s14-14-14s16-12-12s10-------|
--x-x--x--x--x--x--x--x--x--x--x--x--x--x--x--x--------|
--7s9--9--9--9--9--9--9--9s12--12-12s14-10-10s8--------|
-------------------------------------------------------|

Bridge

"Imagine me" after the second power chord he does a hammer on, just listen close.
----------------------------------------------------|
-----------3h5p3------------------------------------|
---1-----4-------3-------2--------3------4----------|
---2-----5-------4-------3--------3------4-------3--|
---2-----5-------4-------3--------1------2-------3--|
-------------------------------------------------1--|

Solo 2 Repeat this twice- This is where im not as sure, but if you listen you can get it, i think.
---9s11--11-11-11-12-12-12-12-9-9-9-9-12-12-12-12-9-9-9-9-12-12-12-12-7-7-7-7-7-7-7-7-|
---x-x---x--x--x--x--x--x--x--x-x-x-x-x--x--x--x--x-x-x-x-x--x--x--x--x-x-x-x-x-x-x-x-|
---7s9---9--9--9--10-10-10-10-7-7-7-7-10-10-10-10-7-7-7-7-10-10-10-10-5-5-5-5-5-5-5-5-|
 
The outro is almost the same as the intro (different fills) with soft strums when you get the these chords. 
The first time he strums the 4th chord and the second time the 3rd i believe.
|---3-3--|
|---3-3--|
|---0-0--|
|---0-2--|
|---2-3--|
|--------|

On another note, some of the fills you hear are bass fills, i guess you'll just have to listen or play it the non RHCP way.
Rate this is if you want, i know whats right and whats not, your opinion doesn't 


Song Structure
Verse
Verse
Chorus
Verse
Chorus
Solo
Bridge
Verse
Chorus
Solo 2
Outro
            

comments powered by Disqus
↑ Back to top | Red Hot Chili Peppers Tabs for My Friend. Lyrics for acoustic guitar and electric guitar. Tablatures and chords are parodies/interpretations of the original songs. You may use it for private study, scholarship, research or language learning purposes only