» » »

Red Hot Chili Peppers, My Friend Tabs (ver.2)

Artists:  A B C D E F G H I J K L M N O P Q R S T U V W X Y Z # 

My Friend Tabs (ver.2)

Red Hot Chili Peppers Tabs
 Rating:
4/5 (4 votes)
My Friend lessons Tabs too difficult? Try these video lessons and learn fast
                Red Hot Chili Peppers
Solo from My Friends

I noticed there were some pretty accurate tabs for "my friends"
but none of them contained the solo. I am tabbing it from memory
but I guarantee its right. If you dont agree then e-mail me

SOLO
e------------------------------------------------I    
b------------------------------------------------I
g--9/11-11-11-11\-9\-7----7/9\---7\---5----5/-7\-I     
d------------------------------------------------I
a--7/-9--9--9--9\-7\-5----5/7\---5\---3----3/-5\-I      
e------------------------------------------------I
   s  s  s  s  s  s  e    * e    e    e    s  s

(*)These are grace notes. Don't hit notes after slide
                          let them flow :)

e---------------------------------------------I   
b---------------------------------------------I   
g-\4------------4--4--4/-5--5--5--5/-7--7--7--I   
d---------------------------------------------I   
a-\2------------2--2--2/-3--3--3--3/-5--5--5--I   
e---------------------------------------------I
   q+e          s  s  s  s  s  s  s  s  s  s


e--------------------------------------------- 
b--------------------------------------------- 
g--7-11-11-11-11-11-11-11-11--14--14--14--14-- 
d--------------------------------------------- 
a--5--9--9--9--9--9--9--9--9--12--12--12--12--                  
e--------------------------------------------- 
   s  s  s  s  s  s  s  s  s  s   s   s   s

e--------------I-----------------------------------------I
b--------------I--------------------13b(15)--13b(15)-----I
g--14--14/-16\-I-\12------------0---------------------0--I
d--------------I----------------0---------------------0--I
a--12--12/-14\-I-\10------10-----------------------------I
e--------------I-----------------------------------------I
   s   s   s      q       e     e   q        e+s      s   


e-------------------------------------------------I   
b-------------------------------------------------I   
g--9/11-11-11-11\-9\-7----7/-9\---7\---5----5/-7\-I   
d-------------------------------------------------I   
a--7/-9--9--9--9\-7\-5----5/-7\---5\---3----3/-5\-I    
e-------------------------------------------------I   
   s  s  s  s  s  s  e    *  e    e    e    s  s


e--------------------------------------------I
b--------------------------------------------I
g-\4------------4----4/-5--5--5--5/-7--7--7--I 
d--------------------------------------------I
a-\2------------2----2/-3--3--3--3/-5--5--5--I
e--------------------------------------------I 
   q+e          e    s  s  s  s  s  s  s  s


e---------------------------------------------  
b---------------------------------------------  
g--7/11-11-11-11-11-11-11-11/-14--14--14--14--  
d---------------------------------------------   
a--5/-9--9--9--9--9--9--9--9/-12--12--12--12--  
e---------------------------------------------
   s  s  s  s  s  s  s  s  s  s   s   s   s


e----------I------------------------------------I
b----------I------------------------------------I
g--14/-16\-I-\12------------12\---5-------------I
d----------I------------------------------------I
a--12/-14\-I-\10------------10\---3-------------I
e----------I------------------------------------I
   s   s      q+e           e     h

...Then to Bridge...

E, G6, F#7sus4, Fmaj7#11, C, Bsus4, F5............

The end of the song is cool also.
That great distorted guitar comes back into this acoustic 
song and probably plays this:

b--10--10--10--10--10--10--10--10--I        
g--11--11--11--11--11--11--11--11--I        

b--10--10--10--10--10--10--10--10--I
g--12--12--12--12--12--12--12--12--I

b--10--10--10--10--10--10--10--10--I
g--10--10--10--10--10--10--10--10--I

b--10--10--10--10--10--10--10--10--I
g---9---9---9---9---9---9---9---9--I

b--10--10--10--10--10--10--10--10--I
g--11--11--11--11--11--11--11--11--I

b--10--10--10--10--10--10--10--10--I
g--12--12--12--12--12--12--12--12--I


b--10--10--10--10--10--10--10--10--I
g--10--10--10--10--10--10--10--10--I

b--5---5---5---5---5---5---5---5---I
g--5---5---5---5---5---5---5---5---I

These are all sixteenth notes....
....This about all you need but if you
have trouble with the tab you know where 
to reach me.

On the solo you bend 13th fret a full step--
--which sounds like 15th fret of course.
And it sounds better if you slide directly to 
the next note without hitting it.
            
Submit corrections

comments powered by Disqus
↑ Back to top | Red Hot Chili Peppers Tabs for My Friend. Lyrics for acoustic guitar and electric guitar. Tablatures and chords are parodies/interpretations of the original songs. You may use it for private study, scholarship, research or language learning purposes only