» » »

Red Hot Chili Peppers, Magic Johnson Tabs (ver.2)

Artists:  A B C D E F G H I J K L M N O P Q R S T U V W X Y Z # 

Magic Johnson Tabs (ver.2)

Red Hot Chili Peppers Tabs
 Rating:
4/5 (4 votes)
Magic Johnson lessons Tabs too difficult? Try these video lessons and learn fast
                This is my first tab...I hope that is fully correct...Frusciante's guitar is 
normally tuned(eBGDAE)...It's a cool song from the best band in the world!!!RHCP!!!!!!


-|------|-12-x7-14-x3-12-x7-15-x3-12-x7-14-x3-12-x5--12-14-15---14-15-16-17-|-
-|------|-12-x7-14-x3-12-x7-15-x3-12-x7-14-x3-12-x5--12-14-15---14-15-16-17-|-
-|------|-12-x7-14-x3-12-x7-15-x3-12-x7-14-x3-12-x5--12-14-15---14-15-16-17-|-
-|-2----|-12-x7-14-x3-12-x7-15-x3-12-x7-14-x3-12-x5--12-14-15---14-15-16-17-|-
-|-0----|-------------------------------------------------------------------|-
-|------|-------------------------------------------------------------------|-
   P.M.                                                                       

-|------|--15p12-----------------------------|-15p12----------------------|---
-|------|--------15p12--------------12h15p12-|-------15p12----------------|---
-|------|--------------14p12--12h14----------|-------------14p12-14-14-14-|---
-|-2----|------------------------------------|-------------------14-14-14-|---
-|-0----|------------------------------------|----------------------------|---
-|------|------------------------------------|----------------------------|---
   P.M.   solo                                                                

-|-15p12----------------------------|-15p12-------------15-15-15-|------------
-|-------15p12-------------12h15p12-|-------15p12-------15-15-15-|------------
-|-------------14p12-12h14----------|-------------14p12----------|------------
-|----------------------------------|----------------------------|------------
-|----------------------------------|----------------------------|------------
-|----------------------------------|----------------------------|------------
                                                                              

-|-15p12----------------------------|-12-14-15-|-14-15-16-17-|----------------
-|-------15p12-------------12h15p12-|-12-14-15-|-14-15-16-17-|----------------
-|-------------14p12-12h14----------|-12-14-15-|-14-15-16-17-|----------------
-|----------------------------------|-12-14-15-|-14-15-16-17-|----------------
-|----------------------------------|----------|-------------|----------------
-|----------------------------------|----------|-------------|----------------
 Well...that's all...
            
Submit corrections

comments powered by Disqus
↑ Back to top | Red Hot Chili Peppers Tabs for Magic Johnson. Lyrics for acoustic guitar and electric guitar. Tablatures and chords are parodies/interpretations of the original songs. You may use it for private study, scholarship, research or language learning purposes only