» » »

Red Hot Chili Peppers, Jungle Man Bass tabs (ver.2)

Artists:  A B C D E F G H I J K L M N O P Q R S T U V W X Y Z # 

Jungle Man Bass tabs (ver.2)

Red Hot Chili Peppers Tabs
 Rating:
4/5 (4 votes)
Jungle Man  lessons Tabs too difficult? Try these video lessons and learn fast
1
                (2)
Intro: slap all low (on E string) notes and pop all high (4th fret, d string) notes  
G-----------------------------------
D--------4----------4--------------- play 2 times
A-----------------------------------
E--0h2-2------0h2-2----2-0-2--------

G--------------------------------- play 4 times, last 2 measures a bit slower
D--------4------7---9-------------
A---------------------------------
E--0h2-2----2-5---7---------------

play with fingers:
G-------------------------------------------------------------- play softly at first
D-------------------------------------------------------------- and gradually
A--5---5--5-5-5-5-5-5-5-5-5-5-5-5-5-5-5-5-5-5-5-5-5-5-5-5-5\--- increase volume
E--------------------------------------------------------------(thts 27 notes. at the last one slide down)

Verse:  finger pick those last four notes. play 4 times
G--------------------------------------------------7----------------------
D--------4-------------4---------------4----------------------------------
A----------------------------------------------5-5----5/7-7-7-7-----------
E--0h2-2----2-0--0h2-2----2-0-2--0h2-2----2-0-----------------------------

Interlude: play with fingers  
G------------------------------------------------------------ play once
D-------7-----------------------7----------------------------
A----------3-3-5-5-6-7---------------3-3-5-5-6-7-5-5---------
E--5-5-------------------5-5--5----5-------------------------

G----------------------------------------------------- play 2 times
D--5--7---------------------7-------------------------
A--------3-3-5-5-6-7-------------3-3-5-5-6-7----------
E----------------------5--5----5-------------5-5------

G---------------------------------------------------------
D--5--7-------------------7p5---5------------------------- play once
A--------3-3-5-5-6-7----------7----7--5p0-----------------
E----------------------5------------------5---------------

yipee! my first tab. please rate it. its 100% correct, i have no doubt. enjoy and listen to the chili peppers often!
            
Submit corrections

comments powered by Disqus
↑ Back to top | Red Hot Chili Peppers Bass for Jungle Man. Lyrics for acoustic guitar and electric guitar. 1 Tablatures and chords are parodies/interpretations of the original songs. You may use it for private study, scholarship, research or language learning purposes only