» » »

Red Hot Chili Peppers, Instrumental # Bass tabs (ver.3)

Artists:  A B C D E F G H I J K L M N O P Q R S T U V W X Y Z # 

Instrumental # Bass tabs (ver.3)

Red Hot Chili Peppers Tabs
Rating:
0/5 (0 votes)
Instrumental # lessons Tabs too difficult? Try these video lessons and learn fast
                Intrumental #2

By the Red Hot Chili Peppers


G ----------------------------------------------------------------------------
D ---7--5---------------3--5----------------7--5---------------------3--2-----
A -------------------------------------------------------------------------3/0
E -5--------0-5-0-x-x-3--------0-3-0-x-x--5--------0-5-0-x-x-3-5--7-----------
(repeat 2x)

G --------------------------------------------------------------------------
D ---7--5---------------3--5---5h7p5------7--5---------------------3--2-----
A -----------------------------------5-----------------------------------3/0
E -5--------0-5-0-x-x-3----------------5--------0-5-0-x-x-3-5--7------------


G ----------------------------------------------------------------------------
D ---7--5---------------3--5----------------7--5---------------------3--2-----
A -------------------------------------------------------------------------3/0
E -5--------0-5-0-x-x-3--------0-3-0-x-x--5--------0-5-0-x-x-3-5--7-----------


G --------------------------------
D -------------------------------
A -55--5-55------55--5-55-7-9--
E -----------5-7-----------------
(repeat 4x)

G --------------
D --------------
A -55-88--------
E -------77--33-

Then repeat all of the above 3x

End like this -
G -----
D ---7-
A -----
E -5---
            
Submit corrections

comments powered by Disqus
↑ Back to top | Red Hot Chili Peppers Bass for Instrumental #. Lyrics for acoustic guitar and electric guitar. Tablatures and chords are parodies/interpretations of the original songs. You may use it for private study, scholarship, research or language learning purposes only