» » »

Red Hot Chili Peppers, Hard To Concentrate Tabs (ver.4)

Artists:  A B C D E F G H I J K L M N O P Q R S T U V W X Y Z # 

Hard To Concentrate Tabs (ver.4)

Red Hot Chili Peppers Tabs
Rating:
0/5 (0 votes)
Hard To Concentrate lessons Tabs too difficult? Try these video lessons and learn fast
                This song already had some fairly good tabs but
none were quite right so here you go, 100% correct
im pretty sure, 1st tab so give me credit if theres
1 thing wrong, for the sound i usually use flanger,
and twist volume for the swells, and for the intro
chords you can also play 14 12 11 instead of 14 15 16
if you like the sound of a lower register for the chord

Intro/Verse
|-15----------------------14-----------------------|
|-17----------------------15-----------------------|
|-16----------------------16-----------------------|
|--------------------------------------------------| x4
|--------------------------------------------------|
|--------------------------------------------------|

Chorus
|-3---------3-----------5------------7-------------|
|-5---------3-----------7------------8-------------|
|-5---------4-----------7------------9-------------|
|-5---------5-----------7------------9-------------| x3
|-3---------5-----------5------------7-------------|
|-----------3--------------------------------------|

|-3---------3-----------5------------14-------------|
|-5---------3-----------7------------15-------------|
|-5---------4-----------7------------16-------------|
|-5---------5-----------7---------------------------| x1
|-3---------5-----------5---------------------------|
|-----------3---------------------------------------|

Verse
|-15----------------------14-----------------------|
|-17----------------------15-----------------------|
|-16----------------------16-----------------------|
|--------------------------------------------------| x2
|--------------------------------------------------|
|--------------------------------------------------|

Chorus
|-3---------3-----------5------------7-------------|
|-5---------3-----------7------------8-------------|
|-5---------4-----------7------------9-------------|
|-5---------5-----------7------------9-------------| x3
|-3---------5-----------5------------7-------------|
|-----------3--------------------------------------|

|-3---------3-----------5------------14-------------|
|-5---------3-----------7------------15-------------|
|-5---------4-----------7------------16-------------|
|-5---------5-----------7---------------------------| x1
|-3---------5-----------5---------------------------|
|-----------3---------------------------------------|

Riff 1
|----15--15-----17--17-15--------15--15-----17--17-15-----|
|-17--------17------------17--17--------17------------17--|
|---------------------------------------------------------|
|---------------------------------------------------------|
|---------------------------------------------------------|
|---------------------------------------------------------|

|----------14----------15--14--------------14----------15--14----|
|----15----------15-----------15-----15----------15-----------15-|
|-16----16----16----16------------16----16----16----16-----------|
|----------------------------------------------------------------|
|----------------------------------------------------------------|
|----------------------------------------------------------------|

|----15--15-----17--17-15--------15--15-----17--17-15-----|
|-17--------17------------17--17--------17------------17--|
|---------------------------------------------------------|
|---------------------------------------------------------|
|---------------------------------------------------------|
|---------------------------------------------------------|

|----------14----------15--14--------------14----------15--14----|
|----15----------15-----------15-----15----------15-----------15-|
|-16----16----16----16------------16----16----16----16-----------|
|----------------------------------------------------------------|
|----------------------------------------------------------------|
|----------------------------------------------------------------|

                                                            when you repeat
                                                      this chorus after the 
                                                  first time you slide up to
                                               13 from 12 instead of slide
                                               down as shown barred off
Chorus 2
|-------12--12-----------10--10-----------10--10---------12--12---|------|
|-15\13--------13--13\12--------12--12\10-------10-10/12--------12|-12/13|
|-----------------------------------------------------------------|------|x3
|-----------------------------------------------------------------|------|
|-----------------------------------------------------------------|------|
|-----------------------------------------------------------------|------|

|-------12--12-----------10--10-----10--------10---------|
|-12\13--------13--13\12--------12--10--------10---------|
|--------------------------------------------------------|
|--------------------------------------------------------|
|--------------------------------------------------------|
|--------------------------------------------------------|

Bridge
|-3----------------------3-----------5----------|
|-5----------------------3-----------7----------|
|-5----------------------4-----------7----------|
|-5----------------------5-----------7----------| x2
|-3----------------------5-----------5----------|
|------------------------3----------------------|

|--------8---------------7--------10-------|
|------8---------------8--------10---------|
|----9---------------7--------11-----------|
|-10---------------9--------12-------------|
|------------------------------------------|
|------------------------------------------|

|--------8----------7---10--10--14-14-10-10--14-14-10-10--14-14-10-10|
|------8----------8-----10--10--10-10-10-10--10-10-10-10--10-10-10-10|
|----9----------7-------11--11--11-11-11-11--11-11-11-11--11-11-11-11|
|-10----------9---------12--12--12-12-12-12--12-12-12-12--12-12-12-12|
|--------------------------------------------------------------------|
|--------------------------------------------------------------------|

Verse
|----15--15-----17--17-15--------15--15-----17--17-15-----|
|-17--------17------------17--17--------17------------17--|
|---------------------------------------------------------|
|---------------------------------------------------------|
|---------------------------------------------------------|
|---------------------------------------------------------|

|----------14----------15--14--------------14----------15--14----|
|----15----------15-----------15-----15----------15-----------15-|
|-16----16----16----16------------16----16----16----16-----------|
|----------------------------------------------------------------|
|----------------------------------------------------------------|
|----------------------------------------------------------------|

|----15--15-----17--17-15--------15--15-----17--17-15-----|
|-17--------17------------17--17--------17------------17--|
|---------------------------------------------------------|
|---------------------------------------------------------|
|---------------------------------------------------------|
|---------------------------------------------------------|

|----------14----------15--14--------------14----15----15--14----|
|----15----------15-----------15-----15-----------------------15-|
|-16----16----16----16------------16----16----16----16-----------|
|----------------------------------------------------------------|
|----------------------------------------------------------------|
|----------------------------------------------------------------|

Chorus 3
|-------12--12-----------10--10-----------10--10-------12--12-----|------|
|-15\13--------13--13\12--------12--12\10-------10-10/12--------12|-12/13|
|-----------------------------------------------------------------|------|x3
|-----------------------------------------------------------------|------|
|-----------------------------------------------------------------|------|
|-----------------------------------------------------------------|------|

|-------12-12-----------10-10----10-10-10-10---10-14-14-10-14-14-14-10-14-|
|-12\13-------13-13\12-------12--10-10------10-10----------10----------10-|
|-------------------------------------------------------------------------|
|-------------------------------------------------------------------------|
|-------------------------------------------------------------------------|
|-------------------------------------------------------------------------|

Solo going over Chorus 2
|-10--10h12~-----------------10-------------------------|
|---12----------------10--b12---r10----10-10------------|                   
|------------pb14r12-----------------9-------9~---------|
|-------------------------------------------------------|
|-------------------------------------------------------|
|-------------------------------------------------------|

|--------------------------------------------------------------------------|
|---------------------------------------------------------------12p10---10~|
|-11b12r11----7-7b9r7-7---7------------------7--9b10½-9~--7/9~--------12---|
|-----------------------9----7p5---------7h9-------------------------------|
|--------------------------------------------------------------------------|
|--------------------------------------------------------------------------|

|-10h12~~~~--------------|
|------------------------|
|------------------------|
|------------------------|
|------------------------|
|------------------------|
            

comments powered by Disqus
↑ Back to top | Red Hot Chili Peppers Tabs for Hard To Concentrate. Lyrics for acoustic guitar and electric guitar. Tablatures and chords are parodies/interpretations of the original songs. You may use it for private study, scholarship, research or language learning purposes only