» » »

Hard To Concentrate Tabs (ver.3)

Artists:  A B C D E F G H I J K L M N O P Q R S T U V W X Y Z # 

Hard To Concentrate Tabs (ver.3)

Red Hot Chili Peppers
Rating:
0/5 (0 votes)

Hard to play? Try these video lessons and learn fast.
                Track: #3 (off 2nd disc, Mars)


The two versions already on here weren't quite right, or complete I felt, so    I thought
I'd tab the whole song out cos I like it so much! the second version was spot on for
the first solo but didn't have the rest of the song!)
really sweet sound... dunno to be honest as I'm pretty useless on my GNX.  Might read
the manual one day, lol!) Definatly all bar chords, but you could just play the easy
versions if you can't do em.
Anyone who knows how to get that sound, on a GNX can you let me know!
-------------------------------------------------------------------------------
To get the effects on all the chords in this song, set your effects pedal (you need an
rockable pedal, not just a box with knobs!) to control the volume.
Set the min as 0 and max to whatever is full.
Then to get the effect, strum the chord first with the volume pedal all the way off,
rock the pedal to get that swelling sound. Then just rock it back to kill the chord.
You will need to strum the chord a little before you start moving the pedal so it's
ringing by the time you rock the pedal forward, or you'll get a harsh strumming sound.


Intro and 1st Verse:
      *
E|---15-----------14-------------------------|
B|---17-----------12-------------------------|
G|---16-----------11-------------------------|  X4
D|-------------------------------------------|
A|-------------------------------------------|
E|-------------------------------------------|
*Thanks to "samlynch" for finding a better sounding way of doing it! (barring the top 3
on 12th fret also sounds kinda ok,
but you don't get the high note - easy cop-out version!)


1st Chorus:
     [C]        [G]         [D]         [Em]
E|----3----------3-----------5-----------7-------|
B|----5----------3-----------7-----------8-------|
G|----5----------4-----------7-----------9-------|  x3
D|----5----------5-----------7-----------9-------|
A|----3----------5-----------5-----------7-------|
E|---------------3-------------------------------|

     [C]        [G]         [D]
e|----3----------3-----------5----------------14------------|
B|----6----------3-----------7----------------12------------|
G|----6----------4-----------7----------------11------------|
D|----6----------5-----------7----------------(9)-----------|
A|----3----------5-----------5------------------------------|
E|---------------3------------------------------------------|


2nd Verse:

E|---15-----------14-------------------------|
B|---17-----------12-------------------------|
G|---16-----------11-------------------------|  X4
D|-------------------------------------------|
A|-------------------------------------------|
E|-------------------------------------------|
 |   Guitar part 2.  Tremelo picking
E|--15~~~~~~~~~~~~14~~~~~~~~~~~~~~~~~~~~~~~~~~~|
B|---------------------------------------------|
G|---------------------------------------------|
D|---------------------------------------------|
A|---------------------------------------------|
E|---------------------------------------------|


2nd Chorus:
     [C]        [G]         [D]         [Em]
E|----3----------3-----------5-----------7-------|
B|----5----------3-----------7-----------8-------|
G|----5----------4-----------7-----------9-------|  x3
D|----5----------5-----------7-----------9-------|
A|----3----------5-----------5-----------7-------|
E|---------------3-------------------------------|
 |
E|---12~~~~~~~~~10~~~~~~~~~~10~~~~~~~~~~~12~~~~~~|
B|-----------------------------------------------|
G|-----------------------------------------------|
D|-----------------------------------------------|
A|-----------------------------------------------|
E|-----------------------------------------------|

     [C]        [G]         [D]
E|----3----------3-----------5----------------14------------|
B|----6----------3-----------7----------------12------------|
G|----6----------4-----------7----------------11------------|
D|----6----------5-----------7----------------(9)-----------|
A|----3----------5-----------5------------------------------|
E|---------------3------------------------------------------|
 |
E|---12~~~~~~~~~10~~~~~~~~~~10~~~~~~~~~~~~~~~~~~~~~~14~~~~~~|
B|----------------------------------------------------------|
G|----------------------------------------------------------|
D|----------------------------------------------------------|
A|----------------------------------------------------------|
E|----------------------------------------------------------|


SOLO 								_
E|-------15-----17-17-15------------15------17-17-15---------|	|
B|---17-----17------------17-----17-----17------------17-----|	|
G|-----------------------------------------------------------|	|
D|-----------------------------------------------------------|	|
A|-----------------------------------------------------------|	|
E|-----------------------------------------------------------|	|
(Brackets part optional instead of the "12"			|  x2
E|-----------14------15p14--14-------|				|
B|--12-15-12---15-12------15--15-12--|				|
G|-(16)--(16)----(16)-----------(16)-|				|
D|-----------------------------------|				|
A|-----------------------------------|				|
E|-----------------------------------|				|
(The other guy tabbed it using 16th but I find it easier to play using the 12th)

E|-----12----------10-----------10----/-------12--------------|
B|--13----1312-12------1210-10------10/12-12------12----------|
G|------------------------------------------------------------| x3
D|------------------------------------------------------------|
A|------------------------------------------------------------|
E|------------------------------------------------------------|

E|--10----10-5------------------------------|
B|--10----10-7------------------------------|
G|-----------7------------------------------|
D|-----------7------------------------------|
A|-----------5------------------------------|
E|------------------------------------------|


Bridge
    [C]                     [G]          [D]
E|---3----------------------3-----------5------------------|
B|---5----------------------3-----------7------------------|
G|---5----------------------4-----------7------------------|  x2
D|---5----------------------5-----------7------------------|
A|---3----------------------5-----------5------------------|
E|--------------------------3------------------------------|

E|---------8----------7-------------10-----|---------8----------7-----|
B|-----5-8----------8----------7-10--------|-----5-8----------8-------|
G|---5------------7----------7-------------|---5------------7---------|
D|--------------9--------------------------|--------------9-----------|
A|-----------------------------------------|--------------------------|
E|-----------------------------------------|--------------------------|
    [bar 10th, stick your pinky on 14th]
E|--14---------------------------------------|
B|--10---------------------------------------|
G|--11---------------------------------------|
D|--12---------------------------------------|
A|--10---------------------------------------|
E|-------------------------------------------|
[PLAY TILL CHORUS RHYTHM ISN'T HARD TO FIGURE OUT!]

SOLO 								_
E|-------15-----17-17-15------------15------17-17-15---------|	|
B|---17-----17------------17-----17-----17------------17-----|	|
G|-----------------------------------------------------------|	|
D|-----------------------------------------------------------|	|
A|-----------------------------------------------------------|	|
E|-----------------------------------------------------------|	|
(Brackets part optional instead of the "12"			|  x2
E|-----------14------15p14--14-------|				|
B|--12-15-12---15-12------15--15-12--|				|
G|-(16)--(16)----(16)-----------(16)-|				|
D|-----------------------------------|				|
A|-----------------------------------|				|
E|-----------------------------------|				|
(The other guy tabbed it using 16th but I find it easier to play using the 12th)

E|-----12----------10-----------10----/-------12--------------|
B|--13----1312-12------1210-10------10/12-12------12----------|
G|------------------------------------------------------------| x3
D|------------------------------------------------------------|
A|------------------------------------------------------------|
E|------------------------------------------------------------|

BRIDGE

E|-10--10--10-10----10--14-14-----14--14-14----14-------|
B|-10--10--------10-10--------10--10--------10-10-------|
G|-14--14-----------14------------14-----------14-------|
D|------------------------------------------------------|
A|------------------------------------------------------|
E|------------------------------------------------------|

SOLO AT END
(with first solo playing underneath)
E|--12p10-10h12---------------------10------------------------|
B|------------------12p10----10h12------12p10-10-10-----------|
G|------------------------12------------------------12~~~~----|
D|------------------------------------------------------------|
A|------------------------------------------------------------|
E|------------------------------------------------------------|

E|------------------------------------------------------------|
B|-------------------------------------------------12\8-8-10--|
G|---12-11-8/9-8---------------------8/9--8/9-9---------------|
D|---------------12-9-----------9-12--------------------------|
A|---------------------12p10----------------------------------|
E|------------------------------------------------------------|
    [Picked]
E|--11/12-----------------------------------------------------|
B|------------------------------------------------------------|
G|--12\-------------------------------------------------------|
D|-----\-slide down-------------------------------------------|
A|------\-----------------------------------------------------|
E|-------\----------------------------------------------------|
            
Hard to play? Try these video lessons and learn fast. | Correct




comments powered by Disqus
↑ Back to top | Tablatures and chords are parodies/interpretations of the original songs. You may use it for private study, scholarship, research or language learning purposes only