» » »

Red Hot Chili Peppers, Green Heaven Tabs (ver.1)

Artists:  A B C D E F G H I J K L M N O P Q R S T U V W X Y Z # 

Green Heaven Tabs (ver.1)

Red Hot Chili Peppers Tabs
Rating:
0/5 (0 votes)
Hard to play? Try these video lessons and learn fast.
                Red Hot Chili Peppers
The Red Hot Chili Peppers

This is my first tab, so it may be inaccurate. I cant figure out the solo, but the rest is here.


Intro

e|------|0x-0--0x-0--0-0---------------------------|
B|------|------------------------------------------|
G|------|--------------- Play the e|-0- until 0:07-| and then
D|------|------------------------------------------|
A|------|------------------------------------------|
E|--0~--|------------------------------------------|

e|--0h<12>-0h<12>-0h<12>p0-0h<12-----------------------|p0
B|-----------------------------------------------------|
G|-----------------------------------------------------|
D|---------------------------------  etc then at o:15--| start to do pick slides and mute strums
A|-----------------------------------------------------|
E|-----------------------------------------------------|

Intro part 2

e|--------------------------------------------------------|
B|--------------------------------------------------------|
G|--------------------------------------------------------|
D|--------------------------------5---x-5--5-5-5--5-5-----|
A|----------0---0h2~--2h3p2~------5-0-x-5--5-5-5--5-5-----|
E|--0---0-3---3-----------------0-3---x-3--3-3-3--3-3-2-0-|

Verse

e|------------------|
B|--8-8-8-8---------|
G|--7-7-7-7---------|
D|--6-6-6-6--6-xx-5-|
A|--7-7-7-7--x-xx-x-|
E|-----------4-xx-3-|
"About this planet..."

Break

e|----------------------------------------|
B|----------------------------------------|
G|------------------------------------5-3-|
D|--5--3h5-0h3-xx-four times-then-3h5-----|
A|--5----------xx-------------------------|
E|--3----------xx-------------------------|

Dolphin Bridge

(I'm not sure about this bit, but it may be:)

e|--3-     e|--7
B|--3-  or B|--5     repeated in various funky patterns
G|--3-     G|--5
D|----     D|---
A|----     A|---
E|----     E|---
            

comments powered by Disqus
↑ Back to top | Red Hot Chili Peppers Tabs for Green Heaven. Lyrics for acoustic guitar and electric guitar. Tablatures and chords are parodies/interpretations of the original songs. You may use it for private study, scholarship, research or language learning purposes only