» » »

Freaky Styley Bass tabs (ver.1)

Artists:  A B C D E F G H I J K L M N O P Q R S T U V W X Y Z # 

Freaky Styley Bass tabs (ver.1)

Red Hot Chili Peppers
Rating:
0/5 (0 votes)

Hard to play? Try these video lessons and learn fast.
                

Tuning: (E,A,D,G)


Intro:

G-|--5--------5-5--|--5--------5-5--|-
D-|--5--------5-5--|--5--------5-5--|-
A-|----------------|----------------|-
E-|----------------|----------------|-
     p        p p     p        p p

The rest:

G-|--------5----|--------5-5--|-
D-|--7-----5----|--7-----5-5--|-
A-|-------------|-------------|-
E-|-----5-------|-----5-------|-
     p  S  p       p  S  p p
            
Hard to play? Try these video lessons and learn fast. | Correct




comments powered by Disqus
↑ Back to top | Tablatures and chords are parodies/interpretations of the original songs. You may use it for private study, scholarship, research or language learning purposes only