» » »

Emit Remmus Bass tabs (ver.2)

Artists:  A B C D E F G H I J K L M N O P Q R S T U V W X Y Z # 

Emit Remmus Bass tabs (ver.2)

Red Hot Chili Peppers
Rating:
0/5 (0 votes)

Hard to play? Try these video lessons and learn fast.
                (2)
Intro / Verse

G:-----------------------------------
D:-------5h6p5~-----5h6p5------------
A:---5h7--------5h7-------7----------
E:--------------------------8--------



Chorus

G:---------------------------
D:---------------------------
A:---6-6-6-8/11-11-11\6------
E:---------------------------


After the 2nd Chorus comes this part

G:--------------------------------------------
D:--------------------------------------------
A:----------------------------11111111--------
E:-88888888-44444444-66666666----------1------

G:--------------------------------------------
D:--------------------------------------------
A:-----------10-8-------------6-5-------------
E:-8-8-8--11------11--4-4-4-6-----4--666666---

Figure it out when to play each riff.

I hope it goes like this..
Rate this tab please...
            
Hard to play? Try these video lessons and learn fast. | Correct




comments powered by Disqus
↑ Back to top | Tablatures and chords are parodies/interpretations of the original songs. You may use it for private study, scholarship, research or language learning purposes only