» » »

Red Hot Chili Peppers, Dosed Tabs (ver.5)

Artists:  A B C D E F G H I J K L M N O P Q R S T U V W X Y Z # 

Dosed Tabs (ver.5)

Red Hot Chili Peppers Tabs
Rating:
0/5 (0 votes)
Dosed lessons Tabs too difficult? Try these video lessons and learn fast
                (Correct)
Red Hot Chili Peppers
                               "Dosed"


intro:
e -12-----12-----12-----12----------------------------------
b ------12-----12-----12-----12-----12-----12-----12-----12-
g ----12-----12-----12-----12-----12-----12-----12-----12---
d ------------------------------12-----12-----14-----14-----
a ----------------------------------------------------------
e ----------------------------------------------------------

another part of intro(2 times)
e ----------------------------------------------------------
b ------------------------------0------0------3----0----0---
g ----------------------------------------------------------
d ----------------------------------------------------------
a ----------------------------------------------------------
e ----------------------------------------------------------

verse: 
   I    got dosed   by you, and closer than most  to you
e ----------10------------------------------10------------------------
b ------------------7--8--------------------------7--8----------------
g --------------------------------------------------------------------
d --------------------------------------------------------------------
a --------------------------------------------------------------------
e --------------------------------------------------------------------
    
    What am I  supposed  to do, take it away,  i never had it anyway
e ---------------10-----------------------------19-17-15--14-14/15----
b ----------------------7--8------------------------------------------
g --------------------------------------------------------------------
d --------------------------------------------------------------------
a --------------------------------------------------------------------
e --------------------------------------------------------------------

   Take it way, i never had it anyway
e ---------------15-14-12-10--10/12-----------------------------------
b --------------------------------------------------------------------
g --------------------------------------------------------------------
d --------------------------------------------------------------------
a --------------------------------------------------------------------
e --------------------------------------------------------------------

chorus (riff1--riff2  2 times) 
riff1                     riff2
e-3--5--7--8--            e-3--5--7--7-7-10-7
b-3--7--8--8--            b-3--7--8--8-8-8--8
g-4--7--9--9--            g-4--7--9--9-9-9--9
d-5--7--9--10-            d-5--7--9--xxxxx
a-5--5--7--10-            a-5--5--7--xxxxx            
e-3--5--7--8--            e-3--5--7--xxxxx
        



guitar solo-outro
 
e -12-10-12-10-12-10-12-10-12-10-7-7--7-7--12-10-12-10-12-10-12-10-12-10-7-7--7-7
b -------------------------------------------------------------------------------
g -------------------------------------------------------------------------------
d -------------------------------------------------------------------------------
a -------------------------------------------------------------------------------
e -------------------------------------------------------------------------------

e -8-8-8-8--8-8-7-3-3-3-2-3-3---10-12-10-12-10-12-10-3-3-------
b ------------------------------12-13-12-13-12-13-12-----------
g -------------------------------------------------------------
d -------------------------------------------------------------
a -------------------------------------------------------------------------------
e -------------------------------------------------------------------------------

e -12-10-12-10-12-10-12-10-12-10-7-7--7-7--12-10-12-10-12-10-12-10-12-10-7-7--7-7
b -------------------------------------------------------------------------------
g -------------------------------------------------------------------------------
d -------------------------------------------------------------------------------
a -------------------------------------------------------------------------------
e -------------------------------------------------------------------------------

e -10-10-10-10---10-10-10---8~--8-8-8--7~---8~-7~-10~----------------------------
b -------------------------------------------------------------------------------
g -------------------------------------------------------------------------------
d -------------------------------------------------------------------------------
a -------------------------------------------------------------------------------
e -------------------------------------------------------------------------------
                                            
^`°*,_,*°´^`°*_,*°´^`°*_,*°´^`°*,_Alfredo_,*°´^`°*_,*°´^`°*_,*°´^`°*_,*°´^`°*_,*°´^
            

comments powered by Disqus
↑ Back to top | Red Hot Chili Peppers Tabs for Dosed. Lyrics for acoustic guitar and electric guitar. Tablatures and chords are parodies/interpretations of the original songs. You may use it for private study, scholarship, research or language learning purposes only