» » »

Dosed Tabs (ver.3)

Artists:  A B C D E F G H I J K L M N O P Q R S T U V W X Y Z # 

Dosed Tabs (ver.3)

Red Hot Chili Peppers
Rating:
0/5 (0 votes)

Hard to play? Try these video lessons and learn fast.
                This is what it sounds like to me and if you don't
 like it E-mail me
you'll have to find the lyrics somewhere else sorry.
 I are not to good words
v strum down
^ strum up
b bend   r release bend    h hammer on
m mute   / slide up   \ slide down  
s strum down slowly

-|-12-|-------12-------12-------12-------10-------10-------7-----7-|----------
-|----|----12-------12-------12-------10-------10-------10-----8---|----------
-|----|-12-------12-------12-------11-------11-------11------9-----|-4-4-7-4--
-|----|------------------------------------------------------------|----------
-|----|------------------------------------------------------------|----------
-|----|------------------------------------------------------------|----------
   v    v  ^  v continue rythm   intro verse play along with song    during   

----|------------|-------------|-----------------------|-19-17-15-14--15------
----|-------5----|--15---------|--15-------------------|----------------------
--4-|-4-4-7----4-|------16-15--|------16-15-16h15-12---|----------------------
----|------------|-------------|-----------------------|----------------------
----|------------|-------------|-----------------------|----------------------
----|------------|-------------|-----------------------|----------------------
 intro           during verse last time during first ver                      

-15-14-12-----12--|-----------|--------|---------------|---------12-----12-12-
----------15------|-----------|--------|---------------|------------12--------
------------------|-----------|--------|---------9-----|----------------------
------------------|-----------|--------|---------9--10-|----------------------
------------------|-----------|--------|-14--12--7--10-|----------------------
------------------|-----------|--------|-12--10-----8--|----------------------
                   1/2 of intro verse   choruspart 1     during chorus part 1 

----15--14--12--10-|------------------------------------------|-12-10-12-10---
-12----------------|------------------------------------------|---------------
-------------------|---------9--9--9-9-9----9--9---9---9--9---|---------------
-------------------|---------9--9--9-9-9----10-10--10--10-10--|---------------
-------------------|-14--12--7-----------10-10-10--10--10-10--|---------------
-------------------|-12--10--------------8--------------------|---------------
 What I can hear     v   v   part 2      v   v ^ m v m ^  v m   outro/solo    

-12-10-12-10-12-10--------------|---------------------------------------------
-------------------12-12--12-12-|---13-13-13-13--13--12--------------------12-
--------------------------------|------------------------12-12-11-12-12-12-12-
--------------------------------|---------------------------------------------
--------------------------------|---------------------------------------------
--------------------------------|---------------------------------------------
                                                                              

----------------------------|-------------------------------------------------
-13-12-13-12-13-12----------|-15--15-15--15-15-15-----------------------------
-12-12-12-12-12----12-12-12-|---------------------16b-16b16b-16b16b16b-14-----
----------------------------|-------------------------------------------------
----------------------------|-------------------------------------------------
----------------------------|-------------------------------------------------
   play beginning again                                                       

---------------------------|--------------------------------------------------
------------------------15-|--------------------------------------------------
-14-14--14-14--16b18-16-16-|--------------------------------------------------
---------------------------|--------------------------------------------------
---------------------------|--------------------------------------------------
---------------------------|--------------------------------------------------
            
Hard to play? Try these video lessons and learn fast. | Correct




comments powered by Disqus
↑ Back to top | Tablatures and chords are parodies/interpretations of the original songs. You may use it for private study, scholarship, research or language learning purposes only