» » »

Red Hot Chili Peppers, Dosed Tabs (ver.4)

Artists:  A B C D E F G H I J K L M N O P Q R S T U V W X Y Z # 

Dosed Tabs (ver.4)

Red Hot Chili Peppers Tabs
Rating:
0/5 (0 votes)
Dosed lessons Tabs too difficult? Try these video lessons and learn fast
                (Complete)
My fav. song from the last album, it's standard tuned e,b,g,d,a,e.
I Tabbed all the guitars parts, even those many haven't heard.


INTRO/VERSES
Riff A (Main Riff)
-|-12-------12-------12-------12-------10-------10-----7-----7-|
-|-------12-------12-------12-------10-------10------8-----8---|
-|----12-------12-------12-------11-------11-------9-----9-----|
-|-------------------------------------------------------------|
-|-------------------------------------------------------------|
-|-------------------------------------------------------------|
                                                                              
Riff B
        C            C             D                Em
-|----------------------------------------------------------|
-|--------5------------5-------------7-----------------8----|
-|----------------------------------------------------------|
-|------5------------5-------------7-----------------9------|
-|----3------------3-------------5-----------------7--------|
-|----------------------------------------------------------|
                                                                              
Riff C
                  Part A           Part B
-|---------------------------|------------------------------|
-|------------------3--------|--------3-5-------------------|
-|--------------4-4---4-4----|----4-4-----4-----------------|
-|---------------------------|------------------------------|
-|---------------------------|------------------------------|
-|---------------------------|------------------------------|
                                                                              
Riff D
-|--------------------------|
-|--------------------------|
-|----------------------0---|
-|--------------5-4-2-0-2---|
-|--------------------------|
-|--------------------------|
                                                                              
Riff D2
-|(5)-----|
-|-7-7--8-|
-|(7)7--9-|
-|--------|
-|--------|
-|--------|
                                                                              
Riff E  Part A      Part B
-|-19-17-15-14-15-|---------------|
-|----------------|20-19-17-15-17-|
-|----------------|---------------|
-|----------------|---------------|
-|----------------|---------------|
-|----------------|---------------|

Riff E2
-|-12^-12^-12^-12^-12^....-12^-12^---| All notes are harmonics
-|-----------------------------------|
-|-----------------------------------|
-|-----------------------------------|
-|-----------------------------------|
-|-----------------------------------|
                                                                             
Chorus
      G       D       Em        C           G       D       Em      C
-|-3-3-3-3-5-5-5-5-7-7-7-7-15-14-12----|-3-3-3-3-5-5-5-5-7-7-7-7-7-7-7-10-7-|
-|-3-3-3-3-7-7-7-7-8-8-8-8----------15-|-3-3-3-3-7-7-7-7-8-8-8-8-8-8-8-8--8-|
-|-------------------------------------|------------------------------------|
-|-------------------------------------|------------------------------------|
-|-------------------------------------|------------------------------------|
-|-------------------------------------|------------------------------------|

Chorus Ending A              Ending B
       Em          C                  Em                    C
-|-7-7-7-7-7-7-10-10-10-10-|-7-7-7-7-7-7-7-7-7-7-7-10-10-10-10-10-10-10-10--|
-|-8-8-8-8-8-8-------------|-8-8-8-8-8-8-8-8-8-8-8-8--8--8--8--8--8--8--8---|
-|-7-7-7-7-7-7-------------|-7-7-7-7-7-7-7-7-7-7-7--------------------------|
-|-------------------------|------------------------------------------------|
-|-------------------------|------------------------------------------------|
-|-------------------------|------------------------------------------------|
                                                                              

Solo
 Part A                                 X2
-|-12-10-12-10-12-10-12-10-12-10----------|---------------------------------|
-|-------------------------------12-12-12-|12/13-13-13-13-12----------------|
-|----------------------------------------|------------------12-12-11-12-12-|
-|----------------------------------------|---------------------------------|
-|----------------------------------------|---------------------------------|
-|----------------------------------------|---------------------------------|
                                                                              
                                                                          X2
-|-10-12-10-12-10-12-10-------|-12-10-12-10-12-10-12-10-12-10---------------|
-|-12-13-12-13-12-13-12-------|-------------------------------12-12-12------|
-|----------------------12-12-|---------------------------------------------|
-|----------------------------|---------------------------------------------|
-|----------------------------|---------------------------------------------|
-|----------------------------|---------------------------------------------|
                                                                              
   Part B
-|--------------------------------------------------------------------------|
-|-15-15-15-15-15-15-/-13-13-13-13-13-12-12-12-12-12-12-12b--12--15v--------|
-|--------------------------------------------------------------------------|
-|--------------------------------------------------------------------------|
-|--------------------------------------------------------------------------|
-|--------------------------------------------------------------------------|

Riff F
-|-------------|
-|-------------|
-|-------------|
-|-5-4-2-0-2-2-|
-|-------------|
-|-------------|
                                                                                              
Riff F2
-|-3-3-3-3-3-3-3-3-3-3-3-3-3-3-3-3-5-5-5-5-5-5-5-5-5-5-5-5-7--|
-|-5-5-5-5-5-5-5-5-3-3-3-3-3-3-3-3-5-5-5-5-5-5-5-5-5-5-5-5-8--|
-|--------------------------------------------------------(7)-|
-|------------------------------------------------------------|
-|------------------------------------------------------------|
-|------------------------------------------------------------|
                                                                              
                                                              

Song Structure
- INTRO
Riff A
Riff B
Riff C (Part A X3 - Part B X1)
Riff D

- VERSE
Riff A
Riff B
Riff D
Riff D2

- PRE-CHORUS
Riff A
Riff B
Riff D
Riff E (Part A - Part B)

- INTRO (On Riff C: Part A X2)

- VERSE

- PRE-CHORUS

- cHORUS (With Ending A)

- VERSE

- PRE-CHORUS (Riff E: Part A X2 - Part B X2)

- CHORUS (Ending B)

- BRIDGE
Riff A
Riff B
Riff C (Part A X1 - Part B X1)
Riff D

- VERSE

- PRE-CHORUS (Riff E: Part A X2 - Part B X2)
  Riff E2

- CHORUS (Ending B)

- SOLO
Solo Riff part A
Riff A
Riff B
Riff F

Solo Riff Part B
Riff F2


BONUS:
MAIN BASS LINE
In case anyone wondered the line bass goes mainly like

|---------------------------------|
|-----4-5-----4-5-----4-5-----7-5-|
|-3-3-----3-3-----5-5-----7-7-----|
|---------------------------------|
            
Submit corrections

comments powered by Disqus
↑ Back to top | Red Hot Chili Peppers Tabs for Dosed. Lyrics for acoustic guitar and electric guitar. Tablatures and chords are parodies/interpretations of the original songs. You may use it for private study, scholarship, research or language learning purposes only