» » »

Red Hot Chili Peppers, Don't Forget Me Tabs (ver.5)

Artists:  A B C D E F G H I J K L M N O P Q R S T U V W X Y Z # 

Don't Forget Me Tabs (ver.5)

Red Hot Chili Peppers Tabs
Rating:
0/5 (0 votes)
Don't Forget Me lessons Tabs too difficult? Try these video lessons and learn fast
                (Live)
-------------------------------------------------------------------------------
	Don’t Forget Me (Live at Slane Castle) - Red Hot Chili Peppers
-------------------------------------------------------------------------------

Tuning: Standard

Verse 1

e|-00000000000000000000000000000000000000000000000000000000000000000000000---|
B|---------------------------------------------------------------------------|
G|---------------------------------------------------------------------------|
D|---------------------------------------------------------------------------|
A|---------------------------------------------------------------------------|
E|---------------------------------------------------------------------------|

e|-5h7p5h7p5h7p5h7p5h7p5h7p5h7p5h7p5h7p5h7p5h7p5h7p5h7p5h7p5h7p5h7p5h7p5h7p5-|
B|---------------------------------------------------------------------------|
G|---------------------------------------------------------------------------|
D|---------------------------------------------------------------------------|
A|---------------------------------------------------------------------------|
E|---------------------------------------------------------------------------|

e|-t85p0-t85p0-t85p0-t85p0-t85p0-t85p0-t85p0-t85p0-t85p0-t85p0-t85p0-t85p0---|
B|---------------------------------------------------------------------------|
G|---------------------------------------------------------------------------|
D|---------------------------------------------------------------------------|
A|---------------------------------------------------------------------------|
E|---------------------------------------------------------------------------|

Chorus 1  

e|-555555555555555555555555555555555555/171717171717171717171717171717171717-|
B|–555555555555555555555555555555555555/171717171717171717171717171717171717-|
G|-555555555555555555555555555555555555/171717171717171717171717171717171717-|
D|---------------------------------------------------------------------------|
A|---------------------------------------------------------------------------|
E|---------------------------------------------------------------------------|

Solo 1

e|---------------------------------------------------------------------------|
B|-----------131313131317171717171717171717b20------------131313131317171717-|
G|–1414141414-----------------------------------1414141414-------------------|
D|---------------------------------------------------------------------------|
A|---------------------------------------------------------------------------|
E|---------------------------------------------------------------------------|

e|---------------------------------------------------------------------------|
B|-13-12-13-15b17r15-13-12-12b13r12-12b13r12-12b13r12-12b13r12-12b13r12------|
G|---------------------------------------------------------------------------|
D|---------------------------------------------------------------------------|
A|---------------------------------------------------------------------------|
E|---------------------------------------------------------------------------|

Verse 2

e|-00000000000000000000000000000000000000000000000000000000000000000000000---|
B|---------------------------------------------------------------------------|
G|---------------------------------------------------------------------------|
D|---------------------------------------------------------------------------|
A|---------------------------------------------------------------------------|
E|---------------------------------------------------------------------------|

e|-5h7p5h7p5h7p5h7p5h7p5h7p5h7p5h7p5h7p5h7p5h7p5h7p5h7p5h7p5h7p5h7p5h7p5h7p5-|
B|---------------------------------------------------------------------------|
G|---------------------------------------------------------------------------|
D|---------------------------------------------------------------------------|
A|---------------------------------------------------------------------------|
E|---------------------------------------------------------------------------|




e|-t85p0-t85p0-t85p0-t85p0-t85p0-t85p0-t85p0-t85p0-t85p0-t85p0-t85p0-t85p0---|
B|---------------------------------------------------------------------------|
G|---------------------------------------------------------------------------|
D|---------------------------------------------------------------------------|
A|---------------------------------------------------------------------------|
E|---------------------------------------------------------------------------|

Chorus 2 

e|-555555555555555555555555555555555555/171717171717171717171717171717171717-|
B|–555555555555555555555555555555555555/171717171717171717171717171717171717-|
G|-555555555555555555555555555555555555/171717171717171717171717171717171717-|
D|---------------------------------------------------------------------------|
A|---------------------------------------------------------------------------|
E|---------------------------------------------------------------------------|

Solo 2

e|-5-3-0--5-3-0-0--5-3-0--5--3-0-0--5-3-0--5-3-0-0--5-3-0-7b9-7b9-5--|
B|-------------------------------------------------------------------|
G|-------------------------------------------------------------------|
D|-------------------------------------------------------------------|
A|-------------------------------------------------------------------|
E|-------------------------------------------------------------------|

e|-/12-12–17p12-12--17p12-12--17p12-12--17p12-12--17p12-12--17p12-12-|
B|-------------------------------------------------------------------|
G|-------------------------------------------------------------------|
D|-------------------------------------------------------------------|
A|-------------------------------------------------------------------|
E|-------------------------------------------------------------------|

e|-15-17b19r17-15-17b19r17-15–17p15--17p15--17p15--17p15--17p15----|
B|---------------------------------17-----17-----17-----17-----17--|
G|-----------------------------------------------------------------|
D|-----------------------------------------------------------------|
A|-----------------------------------------------------------------|
E|-----------------------------------------------------------------|

e|-------------15------------------------------------------------------------|
B|-13-15-15b17----17r15-13-12b13r12-12b13r12-12b13r12-12b13r12-12b13r12-10---|
G|---------------------------------------------------------------------------|
D|---------------------------------------------------------------------------|
A|---------------------------------------------------------------------------|
E|---------------------------------------------------------------------------|

Verse 3

e|-00000000000000000000000000000000000000000000000000000000000000000000000---|
B|---------------------------------------------------------------------------|
G|---------------------------------------------------------------------------|
D|---------------------------------------------------------------------------|
A|---------------------------------------------------------------------------|
E|---------------------------------------------------------------------------|

Solo 3

e|000000000000-7-5-8--5-------|
B|----------------------5-----|
G|----------------------------|
D|----------------------------|
A|----------------------------|
E|----------------------------|

e|-5—--5—--5--12----12---12–-12----12---12--10---10-----------|
B|–-5---5-------13----13-------13----13-------12---12---------|
G|---5—–-5--------14----14-------12----12-------12---12-------|
D|------------------------------------------------------------|
A|------------------------------------------------------------|
E|------------------------------------------------------------|





e|---12---12-----12–8----8----8--15---15--------------------|
B|-----13---13-------10---10-------17---17------------------|
G|-------14–--14-------10----10------17---17----------------|
D|----------------------------------------------------------|
A|----------------------------------------------------------|
E|----------------------------------------------------------|
			
e|---------------------------12b13r12–12p10p8-12p10p8-12p10p8--|
B|-15p13p12-15p13p12-15p13p12----------------------------------|
G|-------------------------------------------------------------|
D|-------------------------------------------------------------|
A|-------------------------------------------------------------|
E|-------------------------------------------------------------|

e|-15-13-12-15-17–17–17–—--17-15-13-12-13p12-13p12------------|
B|-----------------------17-----------------------15-13-15----|
G|------------------------------------------------------------|
D|------------------------------------------------------------|
A|------------------------------------------------------------|
E|------------------------------------------------------------|

e|-----------------------------------------------------------------------|
B|-16b17r16–13-15–16p15p13-13-15--16b17r16-13-12-13-12h13p12-------------|
G|----------------------------------------------------------14-12-14p12--|
D|-----------------------------------------------------------------------|
A|-----------------------------------------------------------------------|
E|-----------------------------------------------------------------------|

e|-----------------------------------------------------------------------|
B|-----------------------------------------------------------------------|
G|-14p12—--12-14p12-14p12—-12-14b15r14-12–-12----------------------------|
D|------14---------------14--------------14—--14-12–14h15-14p12----------|
A|--------------------------------------------------------------12-------|
E|------------------------------------------------------------------15---|

Verse 1 x2
Chorus 1 x1
Verse 2 x1
Chorus 2 x2

| /  slide up
| \  slide down
| h  hammer-on
| p  pull-off
| ~  vibrato
| +  harmonic
| x  Mute note
| t  Finger Tap
===============================================================================
            
Submit corrections

comments powered by Disqus
↑ Back to top | Red Hot Chili Peppers Tabs for Don't Forget Me. Lyrics for acoustic guitar and electric guitar. Tablatures and chords are parodies/interpretations of the original songs. You may use it for private study, scholarship, research or language learning purposes only