» » »

Red Hot Chili Peppers, Don't Forget Me Bass tabs (ver.1)

Artists:  A B C D E F G H I J K L M N O P Q R S T U V W X Y Z # 

Don't Forget Me Bass tabs (ver.1)

Red Hot Chili Peppers Tabs
 Rating:
4/5 (4 votes)
Don't Forget Me lessons Tabs too difficult? Try these video lessons and learn fast
1
                By danimaravi

During all the song Flea plays this chord:

G|---9-xxxx--5-xxxx--12-xxxx--7-xxxx--9-xxxx--5-xxxx--12-xxxx--7-xxxx----|
D|---7-xxxx--3-xxxx--10-xxxx--5-xxxx--7-xxxx--3-xxxx--10-xxxx--5-xxxx----|
A|-----xxxx----xxxx-----xxxx----xxxx----xxxx----xxxx-----xxxx----xxxx----|
E|-----xxxx----xxxx-----xxxx----xxxx----xxxx----xxxx-----xxxx----xxxx----|


Before the first solo,in the distorsioned part(...everything you've ever smelled; not
i'll be there, tell me when you want to go...) he changes and plays this:

G|---------16-------5-4---|----------------------5-7-5---|------------5-4--|
D|---7---14--14---3-----5-|--10-12-10-----5--5-7-------7-|-7--7-5-7-3-----7|
A|------------------------|-----------12-----------------|-----------------|
E|------------------------|------------------------------|-----------------|


G|-------------------12----------------|
D|-10-------14-12/14----14-12-14-12-10-|
A|----12-10----------------------------|
E|-------------------------------------|


And in the second distorsioned part (...will always be revealed; not alone, I'll be
tell me when you want to go...) he plays this solo, a little similar to the first, also easy:

G|----------------5-4---|----------------------5-7-5---|------------5-4--|
D|---7---7-5-7--3-----5-|--10-12-10-----5--5-7-------7-|-7--7-5-7-3-----5|
A|----------------------|-----------12-----------------|-----------------|
E|----------------------|------------------------------|-----------------|


G|----14-12----------12----------------|
D|-10-------14-12/14----14-12-14-12-10-|
A|-------------------------------------|
E|-------------------------------------|


G|--------16-------5-4---|-------------------5-7-5---|------------5-4--|
D|---7--14--14---3-----5-|--10-12/10-7-5-5-7-------7-|-7--7-5-7-3-----5|
A|-----------------------|---------------------------|-----------------|
E|-----------------------|---------------------------|-----------------|


G|----12-10----------------------------|
D|-10-------12-10-12-14-10-12-14-12-10-|
A|-------------------------------------|
E|-------------------------------------|


And at the same time as the guitar does its solo he plays this:


G|----------------5-4---|-------------------5-7-5---|------------5-4--|
D|---7---7-5-7--3-----5-|--10-12/10-7-5-5-7-------7-|-7--7-5-7-3-----5|
A|----------------------|---------------------------|-----------------|
E|----------------------|---------------------------|-----------------|

G|----14-12----------12----------------|
D|-10-------14-12/14----14-12-14-12-10-|
A|-------------------------------------|
E|-------------------------------------|

G|----------------5-4---|-------------------5-7-5---|------------5-4--|
D|---7---7-5-7--3-----5-|--10-12/10-7-5-5-7-------7-|-7--7-5-7-3-----5|
A|----------------------|---------------------------|-----------------|
E|----------------------|---------------------------|-----------------|

G|----14-12----------12----------------|
D|-10-------14-12/14----14-12-14-12-10-|
A|-------------------------------------|
E|-------------------------------------|
            
Submit corrections

comments powered by Disqus
↑ Back to top | Red Hot Chili Peppers Bass for Don't Forget Me. Lyrics for acoustic guitar and electric guitar. 1 Tablatures and chords are parodies/interpretations of the original songs. You may use it for private study, scholarship, research or language learning purposes only