» » »

Don't Forget Me Tabs (ver.4)

Artists:  A B C D E F G H I J K L M N O P Q R S T U V W X Y Z # 

Don't Forget Me Tabs (ver.4)

Red Hot Chili Peppers
Rating:
0/5 (0 votes)

Hard to play? Try these video lessons and learn fast.
                (Live)
intro (clean)
 

      Am            F          C           G   
 E --------------------------------------------
 B --------------------------------------------
 G --------------------------------------------
 D --------------------------------------------   x2
 A ----7---x-x-x-x--3-x-x-x-x--10-x-x-x-x--5---
 E ----5---x-x-x-x--1-x-x-x-x--8--x-x-x-x--3---

 
  verses:

 Am               F            
 Im an ocenan
                  C  
 in your bedroom
                      G
 make you feel warm
                            Am
 make you want to re asume


 riff 1:

 E -------------------------------------------------
 B ---5555555555555555555-5-5-5-5-5----5-----5--5---
 G -------------------------------------------------
 D -------------------------------------------------
 A -------------------------------------------------
 E -------------------------------------------------
     pm ..........................................

 riff 2: 
                                      T     T     T     T     T
 E --5h7p5h7p5h7p5h7p5h7p5h7p5h7p5----8p0h5-8p0h5-8p0h5-8p0h5-8p0h5
 B -----------------------------------------------------------------
 G -----------------------------------------------------------------
 D -----------------------------------------------------------------
 A -----------------------------------------------------------------
 E -----------------------------------------------------------------

 chorus ( With distortion)

      Am5       F5       C5        G5 
 E ------------------------------------------
 B ------------------------------------------
 G ----------------------5-------------------
 D ---7--------3---------5---------5---------
 A ---7--------3---------3---------5---------
 E ---5--------1-------------------3---------

   
 this is played during the chorus 
 E --15b17----17-17-17-17-17-17-17-17-17-17-17---
 B -----------17-17-17-17-17-17-17-17-17-17-17---
 G ----------------------------------------------
 D ----------------------------------------------
 A ----------------------------------------------
 E ----------------------------------------------

 solo  ( fast)

 E --12-12-12-12-12-12-12-12-12-12----------------------------------
 B ---------------------------------8-8-8-8-8-8-8-8-8---10-10-10-10-
 G -----------------------------------------------------------------
 D -----------------------------------------------------------------
 A -----------------------------------------------------------------
 E -----------------------------------------------------------------

 
 E ------------------------------------------------------
 B --10 10---------17-17-17-17-17--20-20-20-20-20-20-20--
 G ------------------------------------------------------
 D ------------------------------------------------------
 A ------------------------------------------------------
 E ------------------------------------------------------


 E -----------------------------------------------------------------
 B -17-17-----8-8-8-8-8-8-8---10-10-10-10-10-10------10-8-10-8------
 G ------------------------------------------------------------12---
 D -----------------------------------------------------------------
 A -----------------------------------------------------------------
 E -----------------------------------------------------------------

 
 E -------------------------------
 B ---8-10-8-------5-vvvvvvvvv----
 G -------------------------------
 D -------------------------------
 A -------------------------------
 E -------------------------------

 riff 3:
 
 E ------------------------------------------------------
 B ---10--8-----10--8-----------10--8-----10-------8-----
 G ----------9--------9-9--------------9-------------9---
 D ------------------------------------------------------
 A ------------------------------------------------------
 E ------------------------------------------------------

 outro

 
      Am            F          C           G   
 E --------------------------------------------
 B --------------------------------------------
 G --------------------------------------------
 D --------------------------------------------   
 A ----7---x-x-x-x--3-x-x-x-x--10-x-x-x-x--5---
 E ----5---x-x-x-x--1-x-x-x-x--8--x-x-x-x--3---

 key:

 h    hammer on
 p    pull of
 v    vibrato
 b    bend
 T    tap
 x    dead note
 pm.. palm mute
 
            
Hard to play? Try these video lessons and learn fast. | Correct




comments powered by Disqus
↑ Back to top | Tablatures and chords are parodies/interpretations of the original songs. You may use it for private study, scholarship, research or language learning purposes only