>
 >
Did I Let You Know 1

Did I Let You Know 1 Guitar Tabs

Red Hot Chili Peppers - Did I Let You Know 1 chords, tabs, tablatures, lyrics

Guitar lessons | Add/correct | Request | Top 50 tabs Artists:  A B C D E F G H I J K L M N O P Q R S T U V W X Y Z 0-9

Did I Let You Know 1 Guitar Tabs – Red Hot Chili Peppers

CD, Sheet music, Poster

Do you like Did I Let You Know 1? Share with your friends now
Bass TabsChordsChords v2TabsTabs v2Tabs v3Tabs v4Ukulele
Red Hot Chili Peppers - Did I Let You Know


For the most part the strumming pattern is subject to change, all the notes and chords 
here are right but the
strumming pattern is really a guideline. There is the lead section of the riff part 
which does vary and all the
variations are noted as 'Verse fig. 1, Verse fig. 2' as they appear through the song. I 
hope that makes sense,
I'm sure you'll find your way from just listening to the track anyway.


Verse

  Verse fig. 1
E--10---------8--10---8-----13\10-10-------10---10---|
B--8------11------------11-----------------8----8----|
G--8---------------------------------------8----8----|
D--8---------------------------------------8----8----|
A--10------------------------------------------------|
E--8-----------------------------------8-------------|

E--6---6--6--6------6----6--6---6--6---x--8-8-8-8----|
B--6---6--6--6------6----6--6---6--6---x--6-6-6-6----|
G--7---7--7--7-h-8--8----8--7---7--7---x--7-7-7-7----|
D--8------8--x------x----x--8---8--8---x--x-x-x-x----|
A--8---------8------8----8--8---8--8---x--8-8-8-8----|
E--6---------------------6--6---6--6---x--6-6-6-6----|

  Verse fig. 2
E--10---------8--10---8-----13\10-10--13\10-10--10---|
B--8------11------------11---------------------------|
G--8-------------------------------------------------|
D--8-------------------------------------------------|
A--10------------------------------------------------|
E--8-------------------------------------------------|

E--6---6--6--6------6----6--6---6--6---x--8-8-8-8----|
B--6---6--6--6------6----6--6---6--6---x--6-6-6-6----|
G--7---7--7--7-h-8--8----8--7---7--7---x--7-7-7-7----|
D--8------8--x------x----x--8---8--8---x--x-x-x-x----|
A--8---------8------8----8--8---8--8---x--8-8-8-8----|
E--6---------------------6--6---6--6---x--6-6-6-6----|


E--10---------8--10---8-----13\10-10-------10---10---|
B--8------11------------11-----------------8----8----|
G--8---------------------------------------8----8----|
D--8---------------------------------------8----8----|
A--10------------------------------------------------|
E--8-----------------------------------8-------------|

E--6---6--6--6------6----6--6---6--6---x--8-8-8-8----|
B--6---6--6--6------6----6--6---6--6---x--6-6-6-6----|
G--7---7--7--7-h-8--8----8--7---7--7---x--7-7-7-7----|
D--8------8--x------x----x--8---8--8---x--x-x-x-x----|
A--8---------8------8----8--8---8--8---x--8-8-8-8----|
E--6---------------------6--6---6--6---x--6-6-6-6----|


E--10---------8--10---8-----13\10-10-------10---10---|
B--8------11------------11-----------------8----8----|
G--8---------------------------------------8----8----|
D--8---------------------------------------8----8----|
A--10------------------------------------------------|
E--8-----------------------------------8-------------|

E--6---6--6--6------6----6--6---6--6---x--8-8-8-8----|
B--6---6--6--6------6----6--6---6--6---x--6-6-6-6----|
G--7---7--7--7-h-8--8----8--7---7--7---x--7-7-7-7----|
D--8------8--x------x----x--8---8--8---x--x-x-x-x----|
A--8---------8------8----8--8---8--8---x--8-8-8-8----|
E--6---------------------6--6---6--6---x--6-6-6-6----|


E--10---------8--10---8-----13\10-10--13\10-10--10---|
B--8------11------------11---------------------------|
G--8-------------------------------------------------|
D--8-------------------------------------------------|
A--10------------------------------------------------|
E--8-------------------------------------------------|

E--6---6--6--6------6----6--6---6--6---x--8-8-8-8----|
B--6---6--6--6------6----6--6---6--6---x--6-6-6-6----|
G--7---7--7--7-h-8--8----8--7---7--7---x--7-7-7-7----|
D--8------8--x------x----x--8---8--8---x--x-x-x-x----|
A--8---------8------8----8--8---8--8---x--8-8-8-8----|
E--6---------------------6--6---6--6---x--6-6-6-6----|


E--10---------8--10---8-----13\10-10-------10---10---|
B--8------11------------11-----------------8----8----|
G--8---------------------------------------8----8----|
D--8---------------------------------------8----8----|
A--10------------------------------------------------|
E--8-----------------------------------8-------------|

E--6---6--6--6------6----6--6---6--6---x--8-8-8-8----|
B--6---6--6--6------6----6--6---6--6---x--6-6-6-6----|
G--7---7--7--7-h-8--8----8--7---7--7---x--7-7-7-7----|
D--8------8--x------x----x--8---8--8---x--x-x-x-x----|
A--8---------8------8----8--8---8--8---x--8-8-8-8----|
E--6---------------------6--6---6--6---x--6-6-6-6----|


Chorus

E--10-10-x-10-x-x-10----10-10-10-10-10-10--10-10-x-10-x-x-10----10-10-10-10-10-10--|
B--10-10-x-10-x-x-10----10-10-10-10-10-10--11-11-x-11-x-x-11----11-11-11-11-11-11--|
G--10-10-x-10-x-x-10----10-10-10-10-10-10--12-12-x-12-x-x-12----12-12-12-12-12-12--|
D----------------------------------------------------------------------------------|
A----------------------------------------------------------------------------------|
E----------------------------------------------------------------------------------|

E--10-10-x-10-x-x-10----10-10-10-10-10-10--10-10-x-10-x-x-10----10-10-10-10-10-10--|
B--10-10-x-10-x-x-10----10-10-10-10-10-10--11-11-x-11-x-x-11----11-11-11-11-11-11--|
G--10-10-x-10-x-x-10----10-10-10-10-10-10--12-12-x-12-x-x-12----12-12-12-12-12-12--|
D----------------------------------------------------------------------------------|
A----------------------------------------------------------------------------------|
E----------------------------------------------------------------------------------|

E--10-10-x-10-x-x-10h11----11-11----11-----10-10-x-10-x-x-10------10-10----10------|
B--11-11-x-11-x-x-11-------11-11----11-----8--8--x-8--x-x-8-------8--8-----8-------|
G--10-10-x-10-x-x-10-------10-10----10-----8--8--x-8--x-x-8-------8--8-----8-------|
D----------------------------------------------------------------------------------|
A----------------------------------------------------------------------------------|
E----------------------------------------------------------------------------------|

E--10-10-x-10-x-x-10-------10-10----10-----10-10-x-10-x-x-10------10-10----10------|
B--11-11-x-11-x-x-11-------11-11----11-----11-11-x-11-x-x-11------11-11----11------|
G--12-12-x-12-x-x-12-------12-12----12-----12-12-x-12-x-x-12------12-12----12------|
D----------------------------------------------------------------------------------|
A----------------------------------------------------------------------------------|
E----------------------------------------------------------------------------------|


Second Verse

E--10---------8--10---8-----13\10-10-------10---10---|
B--8------11------------11-----------------8----8----|
G--8---------------------------------------8----8----|
D--8---------------------------------------8----8----|
A--10------------------------------------------------|
E--8-----------------------------------8-------------|

E--6---6--6--6------6----6--6---6--6---x--8-8-8-8----|
B--6---6--6--6------6----6--6---6--6---x--6-6-6-6----|
G--7---7--7--7-h-8--8----8--7---7--7---x--7-7-7-7----|
D--8------8--x------x----x--8---8--8---x--x-x-x-x----|
A--8---------8------8----8--8---8--8---x--8-8-8-8----|
E--6---------------------6--6---6--6---x--6-6-6-6----|


E--10---------8--10---8-----13\10-10-------10---10---|
B--8------11------------11-----------------8----8----|
G--8---------------------------------------8----8----|
D--8---------------------------------------8----8----|
A--10------------------------------------------------|
E--8-----------------------------------8-------------|

E--6---6--6--6------6----6--6---6--6---x--8-8-8-8----|
B--6---6--6--6------6----6--6---6--6---x--6-6-6-6----|
G--7---7--7--7-h-8--8----8--7---7--7---x--7-7-7-7----|
D--8------8--x------x----x--8---8--8---x--x-x-x-x----|
A--8---------8------8----8--8---8--8---x--8-8-8-8----|
E--6---------------------6--6---6--6---x--6-6-6-6----|


Trumpet Solo Section

E----------------------------------------------------|
B----------------------------------------------------|
G----------------------------------------------------|
D----------------------------------------------------|
A----------x-8-8---x-10-10-----------x-8-8---x-10-10-|
E--x-8-8---------------------x-8-8-------------------|

E----------------------------------------------------|
B----------------------------------------------------|
G----------------------------------------------------|
D----------------------------------------------------|
A----------x-8-8---x-10-10-----------x-8-8---x-10-10-|
E--x-8-8---------------------x-8-8-------------------|

E----------------------------------------------------|
B----------------------------------------------------|
G----------------------------------------------------|
D----------------------------------------------------|
A----------x-8-8---x-10-10-----------x-8-8---x-10-10-|
E--x-8-8---------------------x-8-8-------------------|

E----------------------------------------------------|
B----------------------------------------------------|
G----------------------------------------------------|
D----------------------------------------------------|
A----------x-8-8---x-10-10-----------x-8-8---x-10-10-|
E--x-8-8---------------------x-8-8-------------------|

E--------------------------------------------------------------|
B--------------------------------------------------------------|
G--------------------------------------------------------------|
D--------------------------------------------------------------|
A----------x-8-8---x-10-10-----------x-8-8---x-10-10-----------|
E--x-8-8---------------------x-8-8---------------------x-8-8---|



E--10---------8--10---8-----13\10-10-------10---10---|
B--8------11------------11-----------------8----8----|
G--8---------------------------------------8----8----|
D--8---------------------------------------8----8----|
A--10------------------------------------------------|
E--8-----------------------------------8-------------|

E--6---6--6--6------6----6--6---6--6---x--8-8-8-8----|
B--6---6--6--6------6----6--6---6--6---x--6-6-6-6----|
G--7---7--7--7-h-8--8----8--7---7--7---x--7-7-7-7----|
D--8------8--x------x----x--8---8--8---x--x-x-x-x----|
A--8---------8------8----8--8---8--8---x--8-8-8-8----|
E--6---------------------6--6---6--6---x--6-6-6-6----|


  Verse Fig. 3
E--10---------8--10---8-----13\10-10-13\10-10-13\10--|
B--8------11------------11---------------------------|
G--8-------------------------------------------------|
D--8-------------------------------------------------|
A--10------------------------------------------------|
E--8-------------------------------------------------|

E--6---6--6--6------6----6--6---6--6---x--8-8-8-8----|
B--6---6--6--6------6----6--6---6--6---x--6-6-6-6----|
G--7---7--7--7-h-8--8----8--7---7--7---x--7-7-7-7----|
D--8------8--x------x----x--8---8--8---x--x-x-x-x----|
A--8---------8------8----8--8---8--8---x--8-8-8-8----|
E--6---------------------6--6---6--6---x--6-6-6-6----|



Chorus x 1


Guitar Solo
_____
|
|E--------------------------------------------------------------------|
|B--------------------------------------------------------------------|
|G---------------------8fb---r------6---------------------------------|
|D--------------------------------------8fb---r--------------------8--|
|A----------------------------------------------------------8/10------|
|E--------------------------------------------------------------------|
|
|E--------------------------------------------------------------------|
|B--6--6--x--6--x--x--6--------6-----8--8--x--8--x--x--8--------8-----|
|G--6--6--x--6--x--x--6--------6-----8--8--x--8--x--x--8--------8-----|
|D--6--6--x--6--x--x--6--------6-----8--8--x--8--x--x--8--------8-----|
|A--4--4--x--4--x--x--4--------4-----6--6--x--6--x--x--6--------6-----|
|E--------------------------------------------------------------------|
|____

_____
|
|E--------------------------------------------------------------------|
|B--------------------------------------------------------------------|
|G--------------------------------------------------------------------|
|D-----------------------------------------------------------------8--|
|A--8fb---r--------------------------------------------------8/10-----|
|E-----------------------------------8---fb---r-------6---------------|
|
|
|E--6--6--x--6--x--x--6--------6-----6--6--x--6--x--x--6--------6-----|
|B--6--6--x--6--x--x--6--------6-----6--6--x--6--x--x--6--------6-----|
|G--7--7--x--7--x--x--7--------7-----7--7--x--7--x--x--7--------7-----|
|D--8--8--x--8--x--x--8--------8-----8--8--x--8--x--x--8--------8-----|
|A--8--8--x--8--x--x--8--------8-----8--8--x--8--x--x--8--------8-----|
|E--6--6--x--6--x--x--6--------6-----6--6--x--6--x--x--6--------6-----|
|____

_____
|
|E--------------------------------------------------------------------|
|B----------------------------------------------------13fb----11------|
|G---------------------------12fb----10-------------------------------|
|D------------10fb----------------------------------------------------|
|A--10----------------------------------------------------------------|
|E--------------------------------------------------------------------|
|
|E--3--3--x--3--x--x--3--------3-----6--6--x--6--x--x--6--------6-----|
|B--3--3--x--3--x--x--3--------3-----6--6--x--6--x--x--6--------6-----|
|G--3--3--x--3--x--x--3--------3-----7--7--x--7--x--x--7--------7-----|
|D--5--5--x--5--x--x--5--------5-----8--8--x--8--x--x--8--------8-----|
|A--5--5--x--5--x--x--5--------5-----8--8--x--8--x--x--8--------8-----|
|E--3--3--x--3--x--x--3--------3-----6--6--x--6--x--x--6--------6-----|
|____

_____
|
|E---------------13---------15fb-----15------15----13-15----15-13-15--|
|B--------------------------------------------------------------------|
|G--12fb--------------------------------------------------------------|
|D--------------------------------------------------------------------|
|A--------------------------------------------------------------------|
|E--------------------------------------------------------------------|
|
|E--------------------------------------------------------------------|
|B--10-10-x--10-x--x--10-------10----8--8--x--8--x--x--8--------8-----|
|G--10-10-x--10-x--x--10-------10----8--8--x--8--x--x--8--------8-----|
|D--10-10-x--10-x--x--10-------10----8--8--x--8--x--x--8--------8-----|
|A--8--8--x--8--x--x--8--------8-----6--6--x--6--x--x--6--------6-----|
|E--------------------------------------------------------------------|
|____

_____
|
|E--------------------------------------------------------------------|
|B--------------------------------------------------------------------|
|G---------------------8fb-r------p6----------------------------------|
|D----------------6--------------------8-------------------------8----|
|A-----------8--------------------------------------------/10---------|
|E---/9---------------------------------------------------------------|
|
|E--------------------------------------------------------------------|
|B--6--6--x--6--x--x--6--------6-----8--8--x--8--x--x--8--------8-----|
|G--6--6--x--6--x--x--6--------6-----8--8--x--8--x--x--8--------8-----|
|D--6--6--x--6--x--x--6--------6-----8--8--x--8--x--x--8--------8-----|
|A--4--4--x--4--x--x--4--------4-----6--6--x--6--x--x--6--------6-----|
|E--------------------------------------------------------------------|
|____

_____
|
|E----------------------------------8----8/10---------15fb---r--p-13--|
|B-----------------------------------------------13-------------------|
|G--10fb-r---10-------10-----10---------------------------------------|
|D--------------------------------------------------------------------|
|A--------------------------------------------------------------------|
|E--------------------------------------------------------------------|
|
|E--6--6--x--6--x--x--6--------6-----6--6--x--6--x--x--6--------6-----|
|B--6--6--x--6--x--x--6--------6-----6--6--x--6--x--x--6--------6-----|
|G--7--7--x--7--x--x--7--------7-----7--7--x--7--x--x--7--------7-----|
|D--8--8--x--8--x--x--8--------8-----8--8--x--8--x--x--8--------8-----|
|A--8--8--x--8--x--x--8--------8-----8--8--x--8--x--x--8--------8-----|
|E--6--6--x--6--x--x--6--------6-----6--6--x--6--x--x--6--------6-----|
|____



E--10---------8--10---8-----13\10-10-------10---10---|
B--8------11------------11-----------------8----8----|
G--8---------------------------------------8----8----|
D--8---------------------------------------8----8----|
A--10------------------------------------------------|
E--8-----------------------------------8-------------|

E--6---6--6--6------6----6--6---6--6---x--8-8-8-8----|
B--6---6--6--6------6----6--6---6--6---x--6-6-6-6----|
G--7---7--7--7-h-8--8----8--7---7--7---x--7-7-7-7----|
D--8------8--x------x----x--8---8--8---x--x-x-x-x----|
A--8---------8------8----8--8---8--8---x--8-8-8-8----|
E--6---------------------6--6---6--6---x--6-6-6-6----|


E--10---------8--10---8-----13\10-10-13\10-10-13\10--|
B--8------11------------11---------------------------|
G--8-------------------------------------------------|
D--8-------------------------------------------------|
A--10------------------------------------------------|
E--8-------------------------------------------------|

E--6---6--6--6------6----6--6---6--6---x--8-8-8-8----|
B--6---6--6--6------6----6--6---6--6---x--6-6-6-6----|
G--7---7--7--7-h-8--8----8--7---7--7---x--7-7-7-7----|
D--8------8--x------x----x--8---8--8---x--x-x-x-x----|
A--8---------8------8----8--8---8--8---x--8-8-8-8----|
E--6---------------------6--6---6--6---x--6-6-6-6----|



Chorus x 2


Outro

  Gtr 1
E----------------------------------------------------------------------------------|
B----------------------------------------------------------------------------------|
G----------------------------------------------------------------------------------|
D----------------------------------------------------------------------------------|
A------------x--8--8---x--10-10------------x--8--8---x--10-10------------x--8--8---|
E--------------------------------x--8--8-----------------------x--8--8-------------|

____
|
|  Gtr 1 cont.
|E----------------------------------------------------------------------------------|
|B----------------------------------------------------------------------------------|
|G----------------------------------------------------------------------------------|
|D----------------------------------------------------------------------------------|
|A------------x--8--8-------------x--8--8-------------x--8--8-------------x--8--8---|
|E--x--10-10------------x--10-10------------x--10-10------------x--10-10------------|
|
|  Gtr 2
|E----------------------------------------------------------------------------------|
|B----------------------------------------------------------------------------------|
|G----------------------------------------------------------------------------------|
|D----------------------------------------------------------------------------------|
|A--x--8--8---x--8--8---x--8--8---x--8--8---x--8--8---x--8--8---x--8--8---x--8--8---|
|E----------------------------------------------------------------------------------|
|___

  Gtr 1
E----------------------------------------------------------------------------------|
B----------------------------------------------------------------------------------|
G----------------------------------------------------------------------------------|
D----------------------------------------------------------------------------------|
A------------x--8--8---x--10-10------------x--8--8---x--10-10------------x--8--8---|
E--x--8--8-----------------------x--8--8-----------------------x--8--8-------------|

____
|
|  Gtr 1 cont.
|E----------------------------------------------------------------------------------|
|B----------------------------------------------------------------------------------|
|G----------------------------------------------------------------------------------|
|D----------------------------------------------------------------------------------|
|A------------x--8--8-------------x--8--8-------------x--8--8-------------x--8--8---|
|E--x--10-10------------x--10-10------------x--10-10------------x--10-10------------|
|
|  Gtr 2
|E----------------------------------------------------------------------------------|
|B----------------------------------------------------------------------------------|
|G----------------------------------------------------------------------------------|
|D----------------------------------------------------------------------------------|
|A--x--8--8---x--8--8---x--8--8---x--8--8---x--8--8---x--8--8---x--8--8---x--8--8---|
|E----------------------------------------------------------------------------------|
|___

  Gtr 1
E----------------------------------------------------------------------------------|
B----------------------------------------------------------------------------------|
G----------------------------------------------------------------------------------|
D----------------------------------------------------------------------------------|
A------------x--8--8---x--10-10------------x--8--8---x--10-10------------x--8--8---|
E--x--8--8-----------------------x--8--8-----------------------x--8--8-------------|

____
|
|  Gtr 1 cont.
|E----------------------------------------------------------------------------------|
|B----------------------------------------------------------------------------------|
|G----------------------------------------------------------------------------------|
|D----------------------------------------------------------------------------------|
|A------------x--8--8-------------x--8--8-------------x--8--8-----------------------|
|E--x--10-10------------x--10-10------------x--10-10------------x--10-10------------|
|
|  Gtr 2
|E----------------------------------------------------------------------------------|
|B----------------------------------------------------------------------------------|
|G----------------------------------------------------------------------------------|
|D----------------------------------------------------------------------------------|
|A--x--8--8---x--8--8---x--8--8---x--8--8---x--8--8---x--8--8---x--8--8---x--8--8---|
|E----------------------------------------------------------------------------------|
|___


____
|
|  Gtr 1
|E--10--------------8---10----8----------13-\10--------------------------------------------------|
|B--8---------11------------------11-------------------------------------------------------------|
|G--8--------------------------------------------------------------------------------------------|
|D--8--------------------------------------------------------------------------------------------|
|A--10-------------------------------------------------------------------------------------------|
|E--8--------------------------------------------------------------------------------------------|
|
|  Gtr 2 (distant)
|E----------------------------------------------------------------------------8----10----8-------|
|B----------------------------------------------------------------------11--------------------11-|
|G-----------------------------------------------------------------------------------------------|
|D-----------------------------------------------------------------------------------------------|
|A-----------------------------------------------------------------------------------------------|
|E-----------------------------------------------------------------------------------------------|


There that is, I hope it's satisfactory.


Groove on funketeers

Dave





Comments


Popular Red Hot Chili Peppers tabs & chords
Bob Bass Tabs
Off The Map - Pea 1 Bass Tabs
Cant Stop Chords
Apache Rose Peacock 1 Tabs
Brandy Live Tabs
Cmon Girl Tabs
Ethiopia Tabs
Funky Monks 3 Tabs
Parallel Universe 1 Tabs
Tear 2 Tabs


Song lyrics



↑ Back to top | Tablatures and chords are parodies/interpretations of the original songs. You may use it for private study, scholarship, research or language learning purposes only
© 2014 AZChords.com Contact us | Privacy policy | DMCA | Add/correct tabs | Request tabs | Top 50 tabs