>
 >
Deep Kick 4

Deep Kick 4 Bass Tabs

Red Hot Chili Peppers - Deep Kick 4 chords, tabs, tablatures, lyrics

Guitar lessons | Add/correct | Request | Top 50 tabs Artists:  A B C D E F G H I J K L M N O P Q R S T U V W X Y Z 0-9

Deep Kick 4 Bass Tabs – Red Hot Chili Peppers

CD, Sheet music, Poster

Do you like Deep Kick 4? Share with your friends now
Bass TabsBass Tabs v2Bass Tabs v3Bass Tabs v4Bass Tabs v5
INTRO 1

G-|----------6-----------7--|------------------|----------6-----------7--|
D-|-------5-----------5-----|-5-----7--5-------|-------5-----------5-----|
A-|----7-----------7--------|----7--------5H7--|----7-----------7--------|
E-|-0-----------0-----------|------------------|-0-----------0-----------|

G-|--------------------|      G-|----------12-12-11-10--|
D-|-5-----7-4H5P4------|      D-|-5-----7---------------|
A-|----7----------5-4--| ou   A-|----7------------------|
E-|--------------------|      E-|-----------------------| fois 7

INTRO 2

G-|-7----7-----7------7----7---7----|-6-----6-----6-----6------6---6-----|
D-|---7----7-----7------7----7---7--|---7-----7-----7-----7------7---7---|
A-|----------0-----0-----0----------|-----0-----0-----0-----0------------|
E-|---------------------------------|------------------------------------|

-----------------------------------|--------------------------------|
-9-----9-----9-----9------9---9----|-7-----7-----7-----7-----7------|
---7-----7-----7-----7------7---7--|---5-----5-----5-----5-----5----|
-----0-----0-----0-----0-----------|-----0-----0-----0-----0-----0--|

COUPLET 1

G-|---------------------|
D-|---------------------|
A-|---5-7---7-5-7--5-7--|
E-|-0-----7-------------|

G-|-------------------| 
D-|-------------------|
A-|-5-7---7-5-7--5-7--|
E-|-----7-------------|  fois 6 

G-|--------------------| 
D-|--------------------|
A-|-5-7---10-9-7--5-7--|
E-|-----7--------------|?

G-|---------------------|
D-|---------------------|
A-|---5-7---7-5-7--5-7--|
E-|-0-----7-------------|

G-|-------------------| 
D-|-------------------|
A-|-5-7---7-5-7--5-7--|
E-|-----7-------------|  fois 2

G-|--------------------| 
D-|--------------------|
A-|-5-7---10-9-7--5-7--|
E-|-----7--------------|!

G-|---------------------|
D-|---------------------|
A-|---5-7---7-5-7--5-7--|
E-|-0-----7-------------|

G-|-------------------| 
D-|-------------------|
A-|-5-7---7-5-7--5-7--|
E-|-----7-------------|  fois 2

G-|----------------------|
D-|-----------------7----|
A-|-5-7---10-9-7-9----9--|
E-|-----7----------------|

G-|-------------------| 
D-|-------------------|
A-|-5-7---7-5-7--5-7--|
E-|-----7-------------|  fois 9

REFREIN 1

G-|----------12--------------12--------12------|
D-|-10-10-10-----10-10-10-10-----10-10----10\--|
A-|--------------------------------------------|
E-|--------------------------------------------|

G-|-------9----------9------9-----|
D-|-7-7-7----7-7-7-7----7-7---7\--|
A-|-------------------------------|
E-|-------------------------------|

COUPLET 2

G-|---------------------|
D-|---------------------|
A-|---5-7---7-5-7--5-7--|
E-|-0-----7-------------|

G-|-------------------| 
D-|-------------------|
A-|-5-7---7-5-7--5-7--|
E-|-----7-------------| fois 2

G-|-----------------| 
D-|-----------------|
A-|-5-7---7-5-7--5--|
E-|-----7-----------|

REFREIN 2

G-|----------12--------------12--------12------|
D-|-10-10-10-----10-10-10-10-----10-10----10\--|
A-|--------------------------------------------|
E-|--------------------------------------------|

G-|-------9----------9------9-----|
D-|-7-7-7----7-7-7-7----7-7---7\--|
A-|-------------------------------|
E-|-------------------------------|

COUPLET 3

G-|---------------------|
D-|---------------------|
A-|---5-7---7-5-7--5-7--|
E-|-0-----7-------------| 

G-|-------------------| 
D-|-------------------|
A-|-5-7---7-5-7--5-7--|
E-|-----7-------------|  fois 12

REFREIN 3

G-|----------12--------------12--------12------|-------9----------9------9-----| 
D-|-10-10-10-----10-10-10-10-----10-10----10\--|-7-7-7----7-7-7-7----7-7---7\--|
A-|--------------------------------------------|-------------------------------|
E-|--------------------------------------------|-------------------------------|  fois 2

SOLO

G-|-------7----------7------7-----|-------9----------9------9-----|
D-|-5-5-5----5-5-5-5----5-5---5\--|-7-7-7----7-7-7-7----7-7---7\--|
A-|-------------------------------|-------------------------------|
E-|-------------------------------|-------------------------------| fois 2

G-|----------12--------------12--------10------|----------11--------------12--------13--13--|
D-|-10-10-10-----10-10-10-10-----10-10----10\--|-12-12-12-----12-12-12-12-----12-12---------|
A-|--------------------------------------------|--------------------------------------------|
E-|--------------------------------------------|--------------------------------------------| 

G-|-14-12----14-12----12------------------------|
D-|-------14-------14-----14-12----14-12----12--|
A-|----------------------------14-------14------|
E-|---------------------------------------------|  fois 3

G-|-14-12----14-12-----|
D-|-------14-------14--|
A-|--------------------|
E-|--------------------| fois 4

G-|-14-12----14-12------|
D-|-------14-------14/--|
A-|---------------------|
E-|---------------------| 

COUPLET 4

G-|---------------------|
D-|---------------------|
A-|---5-7---7-5-7--5-7--|
E-|-0-----7-------------|

G-|-------------------| 
D-|-------------------|
A-|-5-7---7-5-7--5-7--|
E-|-----7-------------|  fois 6 

G-|------------------------| 
D-|------------------------|
A-|-7-5----7-5----5-5-5-5--|
E-|-----7------7-----------|

G-|-------------------| 
D-|-------------------|
A-|-5-7---7-5-7--5-7--|
E-|-----7-------------|  fois 3

G-|----------------------|
D-|-----------------7----|
A-|-5-7---10-9-7-9----9--|
E-|-----7----------------|

G-|-------------------| 
D-|-------------------|
A-|-5-7---7-5-7--5-7--|
E-|-----7-------------|  fois 13

FINAL

G-|--------------|--------------------|--------------------|-----------------------------|
D-|--------------|--------------------|--------------------|----------------------9-9----|
A-|--------------|-------4--4----4-4--|---4----5--5---5-5--|---5----7--7--7-7--7------7--|
E-|-5--5--0-5-5--|-0-5-0-------5------|-5---5-------6------|-6---6-----------------------|

G-|--------------|--------------------|--------------------|----------------9/11--9-------|
D-|--------------|--------------------|-3-3----------------|-4------------9---------11-9--|
A-|--------------|-------4--4----4-4--|-----4--5--5---5-5--|---5--7--7--7-----------------|
E-|-5--5--0-5-5--|-0-5-0-------5------|-------------6------|------------------------------|

G-|--------------|--------------------|-------------------|------------------9/11--9-------|
D-|--------------|--------------------|-3-----------------|----------------9---------11-9--|
A-|--------------|-------4--4----4-4--|----4--5--5---5-5--|---5----7--7--7-----------------|
E-|-5--5--0-5-5--|-0-5-0-------5------|------------6------|-6---6--------------------------|

G-|--------------|--------------------|--------------------|----------------9/11--9-------|
D-|--------------|--------------------|-3-3----------------|-4------------9---------11-9--|
A-|--------------|-------4--4----4-4--|-----4--5--5---5-5--|---5--7--7--7-----------------|
E-|-5--5--0-5-5--|-0-5-0-------5------|-------------6------|------------------------------|

G-|--------------|--------------------|--------------------|-----------------------------|
D-|--------------|--------------------|--------------------|----------------------9-9----|
A-|--------------|-------4--4----4-4--|---4----5--5---5-5--|---5----7--7--7-7--7------7--|
E-|-5--5--0-5-5--|-0-5-0-------5------|-5---5-------6------|-6---6-----------------------|

G-|--------------|--------------------|--------------------|----------------12----------|
D-|--------------|--------------------|--------------------|-------------------12-11-9--|
A-|--------------|-------4--4----4-4--|---4----5--5---5-5--|---5----7/9/11--------------|
E-|-5--5--0-5-5--|-0-5-0-------5------|-5---5-------6------|-6---6----------------------|





Comments


Popular Red Hot Chili Peppers tabs & chords
Brothers Cup Bass Tabs
Buckle Down Bass Tabs
Out In L.A. 1 Bass Tabs
Brandy Chords
Aeroplane 1 Tabs
Cant Stop Tabs
Emit Remmus 1 Tabs
Ethiopia 2 Tabs
Magic Johnson 1 Tabs
Parallel Universe 1 Tabs


Song lyrics



↑ Back to top | Tablatures and chords are parodies/interpretations of the original songs. You may use it for private study, scholarship, research or language learning purposes only
© 2014 AZChords.com Contact us | Privacy policy | DMCA | Add/correct tabs | Request tabs | Top 50 tabs