» » »

Red Hot Chili Peppers, Deep Kick Bass tabs (ver.1)

Artists:  A B C D E F G H I J K L M N O P Q R S T U V W X Y Z # 

Deep Kick Bass tabs (ver.1)

Red Hot Chili Peppers Tabs
 Rating:
4/5 (4 votes)
Deep Kick lessons Tabs too difficult? Try these video lessons and learn fast
                DEEP KICK (Bassline)
As recorded by Red Hot Chili Peppers
(From the 1995 Album ONE HOT MINUTE)
Words and Music by Anthony Keidis, Michael Balzary, Chad Smith And David Navarro

 

Gtr I (E A D G) - 'Standard'


   Intro
    Moderately Slow Q=88
   4/4
    Gtr I
    E  E  E  E  +E   E  E  E    +E   E  E  E  +E   E  E  E
||---------------------------|-----------------------------|
||o---------11-(11)-------12-|-(12)------------------------|
||o------10---------10-------|------10----12-(12)-10-------|
||--0-12---------------12----|---------12------------10-12-|


                                              |-3--|
  E  E  E  E  +E   E  E  E    +E   E  E  E  E S  S S  E E  7x
|--------------------------|-------------------------------||
|---------11-(11)-------12-|-(12)-------------------------o||
|------10---------10-------|------10----12-10-9-10-9------o||
|-0-12---------------12----|---------12--------------10-9--||


   a  E  E  E  a  E  E  E  a  E  E    E  a  E  E  E  E  E  E  E
|----------------------------------|----------------16-16-12----|
|-12h14-14-14-12h14-14-14-12h14-14-|-14-12h14-14-14----------14-|
|----------------------------------|----------------------------|
|----------------------------------|----------------------------|


   a  E  E  E  a  E  E  E  a  E  E    E  a  E  E  E  E  E  E  E
|----------------------------------|----------------12-12----12-|
|-12h14-14-14-12h14-14-14-12h14-14-|-14-12h14-14-14-------14----|
|----------------------------------|----------------------------|
|----------------------------------|----------------------------|


   a  E  E  E  a  E  E  E  a  E  E    E  a  E  E  E  a  E  E  E  E
|----------------------------------|-------------------------------|
|-12h14-14-14-12h14-14-14-12h14-14-|-14-12h14-14-14-12h14-14-14-14-|
|----------------------------------|-------------------------------|
|----------------------------------|-------------------------------|


   a  E  E  E  a  E  E  E  a  E  E    E  E  E  E  E  E  E  E
|----------------------------------|----12-------------------||
|-12h14-14-14-12h14-14-14-12h14-14-|-14----14-14-14-14-14-14-||
|----------------------------------|-------------------------||
|----------------------------------|-------------------------||


  Faster Q=124
  S S E S S E S S S S +S  S S S   +S  S E S S E S S S S +S  S S S
|-------------------------------|---------------------------------|
|-------------------------------|---------------------------------|
|-7---5-7-----5-7---7-(7)---5-7-|-(7)---5-7-----5-7---7-(7)---5-7-|
|---0-----0-7-----0-------0-----|-----0-----0-7-----0-------0-----|


  +S  S E S S E S S S S +S  S S S   +S  S E S S E S S S S +S  S S S
|---------------------------------|---------------------------------|
|---------------------------------|---------------------------------|
|-(7)---5-7-----5-7---7-(7)---5-7-|-(7)---5-7-----5-7---7-(7)---5-7-|
|-----0-----0-7-----0-------0-----|-----0-----0-7-----0-------0-----|


  +S  S E S S E S S S S +S  S S S   +S  S E S S E S S S S +S  S S S
|---------------------------------|---------------------------------|
|---------------------------------|---------------------------------|
|-(7)---5-7-----5-7---7-(7)---5-7-|-(7)---5-7-----5-7---7-(7)---5-7-|
|-----0-----0-7-----0-------0-----|-----0-----0-7-----0-------0-----|


  +S  S E S S E S S S S +S  S S S   +S  S E S S E S S S S +S  S S S
|---------------------------------|---------------------------------|
|---------------------------------|---------------------------------|
|-(7)---5-7-----5-7---7-(7)---5-7-|-(7)---5-7-----5-7---7-(7)---5-7-|
|-----0-----0-7-----0-------0-----|-----0-----0-7-----0-------0-----|


  +S  S E S S E S S S S +S  S S S   +S  S E S S E S S S S +S  S S S
|---------------------------------|---------------------------------|
|---------------------------------|---------------------------------|
|-(7)---5-7-----5-7---7-(7)---5-7-|-(7)---5-7-----5-7---7-(7)---5-7-|
|-----0-----0-7-----0-------0-----|-----0-----0-7-----0-------0-----|


  +S  S E S S E S S S S +S  S S S   +S  S E S S E  S E S +S  E S
|---------------------------------|-------------------------------|
|---------------------------------|-------------------------------|
|-(7)---5-7-----5-7---7-(7)---5-7-|-(7)---5-7-----10-9-7-(7)-5-7--|
|-----0-----0-x-----0-------0-----|-----0-----0-0-----------------|


  +S  S E S S E S S S S +S  S S S   +S  S E S S E S S S S +S  S S S
|---------------------------------|---------------------------------|
|---------------------------------|---------------------------------|
|-(7)---5-7-----5-7---7-(7)---5-7-|-(7)---5-7-----5-7---7-(7)---5-7-|
|-----0-----0-7-----0-------0-----|-----0-----0-7-----0-------0-----|


  +S  S E S S E S S S S +S  S S S   +S  S E S S E  S S S S +S  E S
|---------------------------------|--------------------------------||
|---------------------------------|----------------------------7---||
|-(7)---5-7-----5-7---7-(7)---5-7-|-(7)---5-7-----10-9---9-(9)---7-||
|-----0-----0-7-----0-------0-----|-----0-----0-0------0-----------||


   Verse
    +S  S E S S E S S S S +S  S S S  8x +S  S E S S E S S S S +S  E.
||-----------------------------------||------------------------------||
||o---------------------------------o||------------------------------||
||o-(7)---5-7-----5-7---7-(7)---5-7-o||-(7)---5-7-----5-7---7-(7)-5--||
||------0-----0-7-----0-------0------||-----0-----0-7-----0----------||


 Chorus
    E  E  E  E  E  E  E  E    E  E  E  E  E  E  Q      E  E  E  E  E  E  E  E
|--------------------------|------------------------|-------------------------|
|-----------17-------------|----17----------17------|----------14-------------|
|-/15-15-15----15-15-15-15-|-15----15-15-15----15\--|-12-12-12----12-12-12-12-|
|--------------------------|------------------------|-------------------------|


   E  E  E  E  E  E  Q       E  E  E  E  E  E  E  E    E  E  E  E  E  E  Q
|------------------------|--------------------------|------------------------|
|----14----------14------|-----------17-------------|----17----------17------|
|-12----12-12-12----12\--|-/15-15-15----15-15-15-15-|-15----15-15-15----15\--|
|------------------------|--------------------------|------------------------|


   E  E  E  E  E  E  E  E
|-------------------------|
|----------14-------------|
|-12-12-12----12-12-12-12-|
|-------------------------|


   S  S E S S E S S S S +S  E.     E  E  E  E  E  E  E  E
|------------------------------|--------------------------|
|------------------------------|-----------17-------------|
|-(7)---5-7-----5-7---7-(7)-5--|-/15-15-15----15-15-15-15-|
|-----0-----0-7-----0----------|--------------------------|


   E  E  E  E  E  E  Q      E  E  E  E  E  E  E  E    E  E  E  E  E  E  Q
|----------------19------|-------------------------|------------------------|
|----17------------------|----------14-------------|----14----------14------|
|-15----15-15-17----17\--|-12-12-12----12-12-12-12-|-12----12-12-12----12\--|
|------------------------|-------------------------|------------------------|


  S S E S S E S S S S +S  S S S   +S  S E S S E S S S S +S  S S S
|-------------------------------|---------------------------------|
|-------------------------------|---------------------------------|
|-7---5-7-----5-7---7-(7)---5-7-|-(7)---5-7-----5-7---7-(7)---5-7-|
|---0-----0-7-----0-------0-----|-----0-----0-7-----0-------0-----|


  +S  S E S S E S S S S +S  S S S   +S  S E S S E S S S S +S  S S S
|---------------------------------|---------------------------------||
|---------------------------------|---------------------------------||
|-(7)---5-7-----5-7---7-(7)---5-7-|-(7)---5-7-----5-7---7-(7)---5-7-||
|-----0-----0-7-----0-------0-----|-----0-----0-7-----0-------0-----||


   Verse
    +S  S E S S E S S S S +S  S S S  8x +S  S E S S E S S S S +S  E.
||-----------------------------------||------------------------------||
||o---------------------------------o||------------------------------||
||o-(7)---5-7-----5-7---7-(7)---5-7-o||-(7)---5-7-----5-7---7-(7)-5--||
||------0-----0-7-----0-------0------||-----0-----0-7-----0----------||


 Chorus
    E  E  E  E  E  E  E  E    E  E  E  E  E  E  Q      E  E  E  E  E  E  E  E
|--------------------------|------------------------|-------------------------|
|-----------17-------------|----17----------17------|----------14-------------|
|-/15-15-15----15-15-15-15-|-15----15-15-15----15\--|-12-12-12----12-12-12-12-|
|--------------------------|------------------------|-------------------------|


   E  E  E  E  E  E  Q     S S E S S E S S S S +S  S S S
|------------------------|-------------------------------|
|----14----------14------|-------------------------------|
|-12----12-12-12----12\--|-7---5-7-----5-7---7-(7)---5-7-|
|------------------------|---0-----0-7-----0-------0-----|


  +S  S E S S E S S S S +S  S S S   +S  S E S S E S S S S +S  S S S
|---------------------------------|---------------------------------|
|---------------------------------|---------------------------------|
|-(7)---5-7-----5-7---7-(7)---5-7-|-(7)---5-7-----5-7---7-(7)---5-7-|
|-----0-----0-7-----0-------0-----|-----0-----0-7-----0-------0-----|


                                 Interlude
  +S  S E S S E S S S S +S  E.     E  E  E  E  +E   E  Q
|------------------------------||-------------------------|
|------------------------------||---------------------12--|
|-(7)---5-7-----5-7---7-(7)-5--||-10-10-10-10-(10)-10-----|
|-----0-----0-7-----0----------||-------------------------|


   +E   Q   E  E  E  E  E    E  E  E  E  +E   E  Q     +E   Q   E  E  E  Q
|-------------------------|-------------------------|------------------------|
|-(12)-----------12----12-|---------------------14--|-(14)-----------14------|
|------10--10-10----10----|-12-12-12-12-(12)-12-----|------12--12-12----12\--|
|-------------------------|-------------------------|------------------------|


   E  E  E  E  +E   E  E  E    E  Q   E  E  E  Q     E  E  E  E  +E   E  Q
|---------------------------|---------------------|-------------------------|
|----------12-(12)----------|--------------12-----|---------------------14--|
|-10-10-10---------10-10-10-|-10-10--10-10----10S=|=12-12-12-12-(12)-12-----|
|---------------------------|---------------------|-------------------------|


   +E   Q   E  E  E  Q      E  E  E  E  +E   E  E  E    E  Q   E  E  E  E  E
|------------------------|---------------------------|-----------------------|
|-(14)-----------14------|---------------------------|-----------------------|
|------12--12-12----12\--|-15-15-15-15-(15)-15-15-15-|-15-15--15-15-15-15-15-|
|------------------------|---------------------------|-----------------------|


   a  E  E  E  E  +E   E  E  E    E  Q   E  E  E  E  E
|------------------------------|-----------------------|
|------------------------------|-----------------------|
|-15h17-17-17-17-(17)-17-17-17-|-17-17--17-18-18-18-18-|
|------------------------------|-----------------------|


   S  S  S  S  S  S  E       S  S  S  S  S  S  E
|-----------------------------------------------------|
|-19-17----19-17----17b17.5---------------------------|
|-------19-------19---------19-17----19-17----17b17.5-|
|---------------------------------19-------19---------|


   S  S  S  S  S  S  E       S  S  S  S  S  S  E
|-----------------------------------------------------|
|-19-17----19-17----17b17.5---------------------------|
|-------19-------19---------19-17----19-17----17b17.5-|
|---------------------------------19-------19---------|


   S  S  S  S  S  S  E       S  S  S  S  S  S  E
|-----------------------------------------------------|
|-19-17----19-17----17b17.5---------------------------|
|-------19-------19---------19-17----19-17----17b17.5-|
|---------------------------------19-------19---------|


   S  S  S  S  S  S  S  S  S  S  S  S  S  S  S  S
|--------------------------------------------------|
|-19-17----19-17----19-17----19-17----19-17----19--|
|-------19-------19-------19-------19-------19-----|
|--------------------------------------------------|


                                                Guitar Solo
   S  S  S  S  S  S  S  S  S  S  S  S  S  S E    S S E S S E S S S S +S  S S S
|---------------------------------------------||-------------------------------|
|-17----19-17----19-17----19-17----19-17------||-------------------------------|
|----19-------19-------19-------19-------19-0-||-7---5-7-----5-7---7-(7)---5-7-|
|---------------------------------------------||---0-----0-7-----0-------0-----|


  +S  S E S S E S S S S +S  S S S   +S  S E S S E S S S S +S  S S S
|---------------------------------|---------------------------------|
|---------------------------------|---------------------------------|
|-(7)---5-7-----5-7---7-(7)---5-7-|-(7)---5-7-----5-7---7-(7)---5-7-|
|-----0-----0-7-----0-------0-----|-----0-----0-7-----0-------0-----|


  +S  S E S S E S S S S +S  S S S     +S  S E S S E S S S S +S  S S S  3x
|---------------------------------||-----------------------------------||
|---------------------------------||o---------------------------------o||
|-(7)---5-7-----5-7---7-(7)---5-7-||o-(7)---5-7-----5-7---7-(7)---5-7-o||
|-----0-----0-7-----0-------0-----||------0-----0-7-----0-------0------||


  +S  S E E E S E S +S  S S S     +S  S E S S E S S S S +S  S S S   3x
|-----------------------------||------------------------------------||
|-------5---5-7-5-------------||o----------------------------------o||
|-(7)-7---7-------7-(7)---5-7-||o-(7)---5-7-----5-7---7-(7)---5-7--o||
|-----------------------0-----||------0-----0-7-----0-------0-------||


                                   Verse
  +S  S E S S E S E S +S  S S S     +S  S E S S E S S S S +S  S S S 12x
|-------------------------------||-----------------------------------||
|---------------7-7-7-(7)-7-9---||o---------------------------------o||
|-(7)---5-7---7---------------7-||o-(7)---5-7-----5-7---7-(7)---5-7-o||
|-----0-----0-------------------||------0-----0-7-----0-------0------||


                                  Outro
                                Halftime Q=62
  +S  S E S S E S S S S +S  S E    Q  E. S e Q  S S
|-------------------------------||------------------|
|-------------------------------||------------------|
|-(7)---5-7-----5-7---7-(7)-7-7-||-0--0--0-0-0--0-2-|
|-----0-----0-7-----0-----------||------------------|


  Q.   E e Q  S S   Q  +E. S e Q  S S   Q  H.
|-----------------|-------------------|----------|
|-----------------|-------------------|----------|
|-4------4-4--0-2-|-5--(5)-5-5-5--4-5-|-7--7-----|
|-----------------|-------------------|----------|


  E. S E. S e Q  S S   Q  E S S e Q  S S   S S E E. S e Q  e
|--------------------|-------------------|-------------------|
|--------------------|-------------------|-------------------|
|-0--0-0--0-0-0--0-0-|-4--4-4-4-4-4--2-0-|-2-0---5--0-5-5--5-|
|--------------------|-------------------|-----2-------------|


  Q.    E  E E  E E   E E E S S e E +S  S S S   Q  +E. S E E S S S S
|-------------------|-------------------------|-----------------------|
|------11-11---11-9-|-7-7---7-7-7-7-(7)-7-7-7-|-----------------------|
|-7----------9------|-----0-------------------|-4--(4)-4-4-4-4-0-2-4--|
|-------------------|-------------------------|-----------------------|


  Q.   E e Q  S S   E. S E. S E. S S S S S   Q  E. S e E S S S S
|-----------------|------------------------|----------------------|
|-----------------|------------------------|----7--------7-7------|
|-5------5-5--4-5-|-7--7-7--7-7--7-7-0-5-4-|-0-----0-0-0-----0-0--|
|-----------------|------------------------|----------------------|


  E. S E. S e Q  S S   E. S E. S e Q  S S   E E  E  E E E  E E
|--------------------|--------------------|--------------------|
|--------------------|--------------------|-----11-11-----11-9-|
|-4--4-4--4-4-4--0-2-|-5--5-5--5-5-5--5---|-7-7---------9------|
|--------------------|--------------------|--------------------|


  E E E S S E E +S  S S S   E. S E. S e Q  S S   Q  E. S E Q  S S
|-------------------------|--------------------|-------------------|
|-7---7-----7-7-(7)-7-7-7-|--------------------|-------------------|
|---0---0-0---------------|-4--4-4--4-4-4--0-2-|-5--5--5-5-5--4-5--|
|-------------------------|--------------------|-------------------|


  E E E E S S S S S S S S   Q  Q   S S S T T S S S S   Q  E. S E E Q
|-------------------------|----------7-9-----7-5-----|----------------*|
|-------------------------|-------/9-----7s5-----7-5-|----------------*|
|---------7-7-7-7-7-5-4-5-|-0--0---------------------|-4--4--4-4------*|
|-0-0-0-0-----------------|--------------------------|----------------*|






Duration Legend
---------------
W - whole; H - half; Q - quarter; E - 8th; S - 16th; T - 32nd; X - 64th; a - acciaccatura
+ - note tied to previous; . - note dotted; .. - note double dotted
Uncapitalized letters represent notes that are staccato (1/2 duration)
Irregular groupings are notated above the duration line
Duration letters will always appear directly above the note/fret number it represents the
duration for.  Duration letters with no fret number below them represent rests.  Multi-
bar rests are notated in the form Wxn, where n is the number of bars to rest for.  Low
melody durations appear below the staff

Tablature Legend
----------------
 h   - hammer-on
 p   - pull-off
 b   - bend
 pb  - pre-bend
 r   - bend release (if no number after the r, then release immediately)
 /\  - slide into or out of (from/to "nowhere")
 s   - legato slide
 S   - shift slide
<n> - natural harmonic
[n]  - artificial harmonic
n(n) - tapped harmonic
 ~   - vibrato
 tr  - trill
 T   - tap
 TP  - trem. picking
 PM  - palm muting
\n/  - tremolo bar dip; n = amount to dip
 \n  - tremolo bar down
 n/  - tremolo bar up
/n\  - tremolo bar inverted dip
 =   - hold bend; also acts as connecting device for hammers/pulls
 <> - volume swell (louder/softer)
 x   - on rhythm slash represents muted slash
 o   - on rhythm slash represents single note slash

Misc Legend
-----------
 |  - bar
||  - double bar
||o - repeat start
o|| - repeat end
*|  - double bar (ending)
 :  - bar (freetime)
 $  - Segno
 &  - Coda
Tempo markers - <E/E./Q/Q./H/H.> = BPM(8/16=s8/s16), where s8 = swing 8ths, s16 = swing 16ths
            
Submit corrections

comments powered by Disqus
↑ Back to top | Red Hot Chili Peppers Bass for Deep Kick. Lyrics for acoustic guitar and electric guitar. Tablatures and chords are parodies/interpretations of the original songs. You may use it for private study, scholarship, research or language learning purposes only